Oops, an error
Loading. Please wait.

Concealed Revulsions Tab

version 1
version 1

Whole song

Interactive

1,518 views 1 this week
1 commentread comment
1 2 3 4 5
3 more votes to show rating
add to favorites
launch autoscroll
font size
0
reset
how to read this tab
guitar tuner
Autoscroll
slow
fast
+/-
esc
set tempo
stop
Help us to improve Ultimate-Guitar.com Take our survey!
×
Difficulty
novice
This tab is better than the first I have done.
For my tab sounds correct, the tunning must be [E A C F A D] ^^ ok here we go.

Intro
|---0---0---1---0---0---0---1----0-|
|--3---3---3---3---3---3---3----3--|
|-2---2---2---2---2---2---2----2---|
|0---0---0---0---------------------|
|----------------3---3---1----1----|
|----------------------------------|

|---0---0---1---0---0--------1----0-|
|--3---3---3---3---3---3----3----3--|
|-2---2---2---2---2---2-2--2----2---|
|0---0---0---0----------------------|
|----------------3---3----1----1----|
|-----------------------------------|

Play that through the verses.

Chorus
|----------------------------------|
|----------------------------------|
|----------------------------------|
|-9-9-9-9-9-9-9-9------------------|
|-9-9-9-9-9-9-9-9------------------|
|-7-7-7-7-7-7-7-7------------------|

|-----------------------------------|
|-----------------------------------|
|-----------------------------------|
|-7-7-7-7-7-7-7-7-------------------|
|-7-7-7-7-7-7-7-7-------------------|
|-5-5-5-5-5-5-5-5-------------------|

|-----------------------------------|
|-----------------------------------|
|-----------------------------------|
|-5-5-5-5-5-5-5-5-------------------|
|-5-5-5-5-5-5-5-5-------------------|
|-3-3-3-3-3-3-3-3-------------------|

|-----------------------------------|
|-----------------------------------|
|-----------------------------------|
|-3-3-3-3-3-3-3-3-------------------|
|-3-3-3-3-3-3-3-3-------------------|
|-1-1-1-1-1-1-1-1-------------------|

Play this 2 times when it's the chorus.

Bridge when he says "I am an empty frame"
NOTE : All the notes here are on the E

E|4-3-0-0-2-3-2-0-0-1-4-3-2-3-0-0-0-0-4-3-0-0-3-
2-3-0-0-1-4-3-3-2-2-4-3-0-0-3-2-3-0-0-1-4-3-2-3
-1/4-4-3-0-0-0-1-4-3-2-3-4-3-0-0-3-2-3-0-0-1-4-
3-2-3-0-0-0-0-4-3-0-0-3-2-3-0-0-1-4-3-0-1-2-1-2-
0-0-3-2-3-0-0-1-4-3-2-3-4-1/4-4-3-0-0-0-1-4-3-2-
3-3-2-2-2-2-3-0-0-1-0-0-1|

It's tabbed by ear so if there is mistakes correct me ^^
Suggest correction
Give kudos to tab author, rate the tab!
1 2 3 4 5
comments
print report bad tab
1 comment total.
0 reply
darksoul910 10 Mar 23, 2012 03:18 PM

right, i just got it, and u can play it as the default tune, so u dont need to tune:
*dont try to play that note, thers a second guitar that makes the bass note.

E|------------------------------------------------------
B|----------3--------3-------4-------3---------3------3
G|-------5---------5-------5-------5---------5-------5
D|----5---------5--------5-------5---------5--------5
A|--3---------3--------3-------3--------(1)*-----(1)-
E|----------------------------------------------------

same thing all time with note bass on A, 3 and 1, then on E note 4. this art nine times.

guest
You may want to rate the tab now too:
select rating
Wanna post a correction for this tab? Suggest correction