Oops, an error
Loading. Please wait.

In The Woods Tab

version 2
version 2

Whole song

Interactive

1,884 views 12 this week
no commentswrite comment
1 2 3 4 5
excellent!
x 4
add to favorites
launch autoscroll
font size
0
reset
how to read this tab
guitar tuner
Tab Pro tools
  • play this tab
  • loop segment
  • change instrument
  • show fretboard
  • metronome
×
Best way to learn
"In The Woods"
Autoscroll
slow
fast
+/-
esc
set tempo
stop
Contributor
Difficulty
novice
Hello guys and girls, I found the other tab not so right and a bit hard to play because 
there was weird finger positions, so I did another one by myself, hop you'll enjoy it !

Intro/Verse Guitar One
e-----0-------------3-----1-----0-------------0-----0------------|
B---------1-3-------3-----3---------1-3-------3-----3------------|
G---2---------2---2-----2-----2---------2---2-5---2-5------------|
D-0-----0-------0-----0------------------------------------------|
A---------------------------3-----3-------0-----0----------------|
E----------------------------------------------------------------|

Guitar Two
e------0----------5/8-5-5---------------0------------------------|
B----6--------------------6/8-6-6-----6--------------------------|
G-/7-------5-7--7------------------/7-------5-7--7-7/9-7-9-7-9-7-|
D--------7--------------------------------7----------------------|
A----------------------------------------------------------------|
E----------------------------------------------------------------|

For the chorus, I only have the solo guitar, not the chords played in the background, 
sorry for that

Chorus
e----5-------------8-8-5-5-5-5-5---------------------------------|
B------8---------6-----------------------------------------------|
G-/7-----7-7-7-5-------------------------------------------------|
D----------------------------------------------------------------|
A----------------------------------------------------------------|
E----------------------------------------------------------------|

Play this 5 times then :

e----5-------------8-8-10-5-5-5----------------------------------|
B------8---------6-----------------------------------------------|
G-/7-----7-7-7-5-------------------------------------------------|
D----------------------------------------------------------------|
A----------------------------------------------------------------|
E----------------------------------------------------------------|

Play this one time then the last is :

e----5-------------8-8-5-3-3-------------------------------------|
B------8---------6-----------------------------------------------|
G-/7-----7-7-7-5-------------------------------------------------|
D----------------------------------------------------------------|
A----------------------------------------------------------------|
E----------------------------------------------------------------|

Then play like the Intro/Verse for both guitars, the second chorus is like the first 
one, and the outro is like the Intro/Verse.

That's all, Hope you enjoyed it !
comments
print report bad tab
I want to post or [tab]
guest
You may want to rate the tab now too:
select rating
Please do not post tabs as comments. Select "correction" instead!