Oops, an error
Loading. Please wait.

Into The Black Light Tab

version 1
version 1

Solo

Interactive

1,760 views 9 this week
1 commentread comment
1 2 3 4 5
please rate
add to favorites
launch autoscroll
font size
0
reset
how to read this tab
guitar tuner
Autoscroll
slow
fast
+/-
esc
set tempo
stop
Help us to improve Ultimate-Guitar.com Take our survey!
×
Difficulty
novice
Hi all, I was tired to see people do this solo on youtube and to don't see tabs of this. 
So I decided to do one myself, if there any errors, correct me.

Here is the tab


e|-----------------------------------------------------11-8~~---------------|
B|-11-9-11-9-----------9-11-9~~----11-13-13~~-13-11--13-------11-9-11~-13~~-|
G|----------10~~-8-8-10--------8-10-----------------------------------------|
D|--------------------------------------------------------------------------|
A|--------------------------------------------------------------------------|
E|--------------------------------------------------------------------------|

Legend : ~~ is sustain


Hope you enjoyed this tab
Suggest correction
Give kudos to tab author, rate the tab!
1 2 3 4 5
comments
print report bad tab
1 comment total.
0 reply
aepicguy 10 wrote on September 13 2015, 04:01 am

Personally I hear:

11-9-11-9----------9-11-(13)-9
---------10--8-8-10-----------

Then again I may be wrong... still great tab!

guest
You may want to rate the tab now too:
select rating
Please do not post tabs as comments. Select "correction" instead!