Oops, an error
Loading. Please wait.

Game Freak Acoustic Tab

version 1
version 1

Whole song

14,799 views 48 this week
no commentswrite comment
1 2 3 4 5
accurate
x 3
add to favorites
launch autoscroll
font size
0
reset
how to read this tab
guitar tuner
Tab Pro tools
  • play this tab
  • loop segment
  • change instrument
  • show fretboard
  • metronome
Autoscroll
slow
fast
+/-
esc
set tempo
stop
Contributor
Difficulty
Tuning
intermediate
D A D G B E
INTRO:
e  ------------------------|
a  ------------------------|
d  7~-----6~-----7~--------|
g  7~-----7~-----7~-----7~-|
b  5~-----4~-----5~-----7~-|
D  ---------------------7~-|

VERSE 1:
   ----------------------------- | -----------------------------------|
   ----------------------------- | -----------------------------------|
   -7------6------7------------- | -7------6------7-------------------|
   -7------7------7------7------ | -7------7------7------7------2-----|
   -5(x11)-4(x11)-5(x11)-7(x11)- | -5(x11)-4(x11)-5(x11)-7(x11)-2-----|
   ----------------------7------ | ----------------------7------2(x9)-|

CHORUS:
   ----------------------------- | -----------------------------|
   ----------------------------- | -----------------------------|
   -7--------------------------- | -7---------------------------|
   -7-----4-----5-----7--------- | -7-----4-----5-----7---------|
   -5(x5)-4-----5(x6)-7(X4)----- | -5(x5)-4-----5(x6)-7(X4)-----|
   -------4-----5-----7--------- | -------4-----5-----7---------|

   ----------------------------- | -------------------------------|
   ----------------------------- | -------------------------------|
   -7--------------------------- | -7-----------------------------|
   -7-----4-----5-----7--------- | -7-----4-----5-----7-------2---|
   -5(x5)-4-----5(x6)-7(X4)----- | -5(x5)-4-----5(x6)-7(X4)-------|2(x4)
   -------4-----5-----7--------- | -------4-----5-----7-------2---|

   ----------------------------- | -----------------------------|
   ----------------------------- | -----------------------------|
   -7--------------------------- | -7---------------------------|
   -7-----4-----5-----7--------- | -7-----4-----5~--------------|
   -5(x5)-4-----5(x6)-7(X4)----- | -5(x5)-4-----5~--------------|
   -------4-----5-----7--------- | -------4-----5~--------------|

VERSE 2:

   ----------------------------- | -----------------------------------|
   ----------------------------- | -----------------------------------|
   -7~-----6------7------------- | -7------6------7-------------------|
   -7~-----7------7------7------ | -7------7------7------7~-----------|
   -5~-----4(x11)-5(x11)-7(x8)-- | -5(x11)-4(x11)-5(x11)-7~-----------|
   ----------------------7------ | ----------------------7~-----------|

   ----------------------------- | -----------------------------------|
   ----------------------------- | -----------------------------------|
   -7------6------7------------- | -7------6------7-------------------|
   -7------7------7------7------ | -7------7------7------7------2-----|
   -5(x11)-4(x11)-5(x11)-7(x11)- | -5(x11)-4(x11)-5(x11)-7(x11)-2-----|
   ----------------------7------ | ----------------------7------2(x5)-|


CHORUS:
   ----------------------------- | -----------------------------|
   ----------------------------- | -----------------------------|
   -7--------------------------- | -7---------------------------|
   -7-----4-----5-----7--------- | -7-----4-----5-----7---------|
   -5(x5)-4-----5(x6)-7(X4)----- | -5(x5)-4-----5(x6)-7(X4)-----|
   -------4-----5-----7--------- | -------4-----5-----7---------|

   ----------------------------- | -------------------------------|
   ----------------------------- | -------------------------------|
   -7--------------------------- | -7-----------------------------|
   -7-----4-----5-----7--------- | -7-----4-----5-----7-------2---|
   -5(x5)-4-----5(x6)-7(X4)----- | -5(x5)-4-----5(x6)-7(X4)-------|2(x9)
   -------4-----5-----7--------- | -------4-----5-----7-------2---|
VERSE 3:
   -------------------------------------------------------------|
   -------------------------------------------------------------|
   -7--7---7---7---7----6--6---6---6---6-----7--7---7---7-------|
   -7---7---7---7---7---7----7---7---7---7---7----7---7---7-----|
   -5-------------------4--------------------5------------------|
   -------------------------------------------------------------|

   -------------------------------------------------------------|
   -------------------------------------------------------------|
   ---------------------7-7-7-7-6-6-6-6-7---7---7---7-----------|
   -7--7---7---7---7----7-7-7-7-7-7-7-7---7---7---7---7-7-------|
   -7----7---7---7---7--5-5-5-5-4-4-4-4-----------------7(x9)---|
   -7---------------------------------------------------7-------|

CHORUS:
   ----------------------------- | -----------------------------|
   ----------------------------- | -----------------------------|
   -7--------------------------- | -7---------------------------|
   -7-----4-----5-----7--------- | -7-----4-----5-----7~--------|
   -5(x5)-4-----5(x6)-7(X4)----- | -5(x5)-4-----5(x6)-7~--------|
   -------4-----5-----7--------- | -------4-----5-----7~--------|

   ----------------------------- | -------------------------------|
   ----------------------------- | -------------------------------|
   -7--------------------------- | -7-----------------------------|
   -7-----4-----5-----7--------- | -7-----4-----5-----7-------2---|
   -5(x5)-4-----5(x6)-7(X4)----- | -5(x5)-4-----5(x6)-7(X4)-------|2(x4)
   -------4-----5-----7--------- | -------4-----5-----7-------2---|

  ----------------------------- | --------------------------------|
   ----------------------------- | -------------------------------|
   -7--------------------------- | -7-----------------------------|
   -7-----4-----5-----7--------- | -7-----4-----5-----7-------2---|
   -5(x5)-4-----5(x6)-7(X4)----- | -5(x5)-4-----5(x6)-7(X4)-------|2(x4)
   -------4-----5-----7--------- | -------4-----5-----7-------2---|


   ----------------------------- | -------------------------------|
   ----------------------------- | -------------------------------|
   -7--------------------------- | -7-----------------------------|
   -7-----4-----5-----7--------- | -7-----4-----5-----7-------2---|
   -5(x5)-4-----5(x6)-7(X4)----- | -5(x5)-4-----5(x6)-7(X4)-------|2(x9)
   -------4-----5-----7--------- | -------4-----5-----7-------2---|

OFFICIAL GHOST TOWN WEBSITES: http://www.youtube.com/user/OfficialGhosttown?feature=watch

https://www.facebook.com/officialGhostTown

https://twitter.com/ghosttownband

http://officialghosttown.tumblr.com/
comments
We did not receive enough feedback on this tab! Please rate:
print report bad tab
1 2 3 4 5
I want to post or [tab]
guest
You may want to rate the tab now too:
select rating
Please do not post tabs as comments. Select "correction" instead!