Oops, an error
Loading. Please wait.

Youre So Creepy Tab

version 2
version 2

Acoustic

Whole song

12,307 views 3 this week
no commentswrite comment
1 2 3 4 5
x 4
add to favorites
launch autoscroll
font size
0
reset
how to read this tab
guitar tuner
Autoscroll
slow
fast
+/-
esc
set tempo
stop
Help us to improve Ultimate-Guitar.com Take our survey!
×
Author
Difficulty
novice
Tab By MoRtIfEr00 (Fran Pilatti :B )
For questions, that's my mail guys: fran.1410@hotmail.com
I hope you like it, And Please Rate (:

This is a Acoustic Version, the original is'n in Cm, that is in Dm


Intro: [ Cm, G#, G7, G7 ] x4


    Cm            G#         G7            Riff 1  
For so long now I've been coming to your rescue
  Cm       G#      G7                 Riff 1
         (Got me thinking I'll get you)

And I'm serious when I say 'I'm over it,
 I'm over it'(And all your fuckin' lies)

That you'll stick around
Stay on my side of town (Now I'm)

covered in blood And I'm feeding off your 
pretty little lies

For once why can't you just come and chase me?
Dig up my grave and save my body

I'm rotting to the bone
But my heart's still beating

Hoping you won't leave me


Chorus:

Cm                   G#
Creepy girls you're just my style
D#
Blood red lipstick
F
You don't smile
G              G#
Falling victim to your fantasy
D#                   Riff 2
Damn, I love it that you're so creepy


Main Chords (WithOut Riff 1)

Cm       G#         G7  
Now you're risking it all   
For some creepy girl

With a blacked out rage that'll cast a spell
Don't tempt her
She's got those evil eyes

Now you're risking it all
For some pin-up doll

Who drinks in the A.M.
Fucks in the P.M.

Treats all the boys like she don't need 'em


Chorus

Creepy girls you're just my style     |
Blood red lipstick                    |
You don't smile                       | x3
Falling victim to your fantasy        |
Damn, I love it that you're so creepy |


Main Chords x4


Bridge

e|-----------------|-----------------------|
B|-----------------|-----------------------|
G|--5-5------5-5---|---5-5-----------------|
D|--5-5------5-5---|---5-5-----6-5-3-5-----|
A|--3-3------3-3---|---3-3-----6-5-3-5-----|
E|-----------------|-----------4-3-1-3-----|

e|-----------------|-----------------------|
B|-----------------|-----------------------|
G|--5-5------5-5---|---5-5-----------------|
D|--5-5------5-5---|---5-5---------1-------|
A|--3-3------3-3---|---3-3-----3-2-2-------|
E|-----------------|-----------4-3---3-----|


Chorus x2




_____________________________________________________________________________

Riff 1

e|------------------------|
B|------------------------|
G|------------------------|
D|------------------------|
A|------5h6p5-------------|
E|------------6-----------|

Riff 2

e|----------------------|
B|----------------------|
G|----------------------|
D|----------------------|
A|--5-6-5-3-5-6-5-3-----|
E|--3-4-3-1-3-4-3-1-----|


References:

h| Hammer
p| Pull Off
Suggest correction
comments
print report bad tab
guest
You may want to rate the tab now too:
select rating
Wanna post a correction for this tab? Suggest correction