Oops, an error
Loading. Please wait.

Youre So Creepy Tab

version 1
version 1

Whole song

4,125 views 21 this week
1 commentread comment
1 2 3 4 5
x 7
add to favorites
launch autoscroll
font size
0
reset
how to read this tab
guitar tuner
×
Best way to learn
"Youre So Creepy"
Autoscroll
slow
fast
+/-
esc
set tempo
stop
Author
Difficulty
Tuning
  follow
novice
D A D G B E
-------------------------------------------------------------------------------
                             YOU'RE SO CREEPY - Ghost Town
-------------------------------------------------------------------------------
Tabbed by: PhAntomNewo64
E-mail: owenpetch@icloud.com

Tuning: Drop D

This tab is for the version on "The After Party" album. I think it's pretty much 
correct, tell me any mistakes :)

INTRO (x2)

e|---------------------------------------------------------------------------|
B|---------------------------------------------------------------------------|
G|---7-7---------------------------------------------------------------------|
D|---7-7----8-8----7--7-7----------------------------------------------------|
A|---5-5----8-8----7--7-7----7h8p7-4-----------------------------------------|
D|----------8-8----7--7-7----------------------------------------------------|

VERSE 1

e|---------------------------------------------------------------------------|
B|---------------------------------------------------------------------------|
G|---7-7---------------------------------------------------------------------|
D|---7-7----8-8----7--7-7----------------(x4)--------------------------------|
A|---5-5----8-8----7--7-7----7h8p7-4-----------------------------------------|
D|----------8-8----7--7-7----------------------------------------------------|

e|---------------------------------------------------------------------------|
B|---------------------------------------------------------------------------|
G|---7-7---------------------------------------------------------------------|
D|---7-7----8-8----7---------------------(x3)--------------------------------|
A|---5-5----8-8----7---------------------------------------------------------|
D|----------8-8----7---------------------------------------------------------|

e|---------------------------------------------------------------------------|
B|---------------------------------------------------------------------------|
G|---7-7---------------------------------------------------------------------|
D|---7-7----8-8----7-7-7-7-7-7-7-7-------------------------------------------|
A|---5-5----8-8----7-7-7-7-7-7-7-7-------------------------------------------|
D|----------8-8----7-7-7-7-7-7-7-7-------------------------------------------|

CHORUS

e|---------------------------------------------------------------------------|
B|---------------------------------------------------------------------------|
G|---7---------------------------7-------------------------------------------|
D|---7-(x8)-8------3------5------7-(x8)-8------3-------5-7-5-3-5-7-5-3-------|
A|---5------8-(x8)-3-(x8)-5-(x8)-5------8-(x8)-3-(x8)--5-7-5-3-5-7-5-3-------|
D|----------8------3------5-------------8------3-------5-7-5-3-5-7-5-3-------|

VERSE 2

e|---------------------------------------------------------------------------|
B|---------------------------------------------------------------------------|
G|-----------------------------------------7--7------------------------------|
D|-----------------------------------------7--7---8--8--7-7--7---------------|
A|-----------------------------------------5--5---8--8--7-7--7-7h8p7-4-(x2)--|
D|---00008888777773330000888877777333-(x1)--------8--8--7-7--7---------------|

e|---------------------------------------------------------------------------|
B|---------------------------------------------------------------------------|
G|---7-------------------7777------------------------------------------------|
D|---7---8---7-----------7777-8888-77777777----------------------------------|
A|---5---8---7-7h8p7-4---5555-8888-77777777----------------------------------|
D|-------8---7----------------8888-77777777----------------------------------|

CHORUS

e|---------------------------------------------------------------------------|
B|---------------------------------------------------------------------------|
G|---7---------------------------7-------------------------------------------|
D|---7-(x8)-8------3------5------7-(x8)-8------3-------5-7-5-3-5-7-5-3-------|
A|---5------8-(x8)-3-(x8)-5-(x8)-5------8-(x8)-3-(x8)--5-7-5-3-5-7-5-3-------|
D|----------8------3------5-------------8------3-------5-7-5-3-5-7-5-3-------|

BRIDGE (pause at the end of the last repeat)

e|---------------------------------------------------------------------------|
B|---------------------------------------------------------------------------|
G|---7-----------------------------------------------------------------------|
D|---7------8------3------5-----(x4)-----------------------------------------|
A|---5------8------3------5--------------------------------------------------|
D|----------8------3------5--------------------------------------------------|

FINAL CHORUS

e|---------------------------------------------------------------------------|
B|---------------------------------------------------------------------------|
G|---7---------------------------7-------------------------------------------|
D|---7-(x8)-8------3------5------7-(x8)-8------3-------5-7-5-3-5-7-5-3---(x2)|
A|---5------8-(x8)-3-(x8)-5-(x8)-5------8-(x8)-3-(x8)--5-7-5-3-5-7-5-3-------|
D|----------8------3------5-------------8------3-------5-7-5-3-5-7-5-3-------|

END

************************************

| /   slide up
| \   slide down
| h   hammer-on
| p   pull-off
| ~   vibrato
| +   harmonic
| x   Mute note
| b   Bend
| pb  Pre-bend
| br  Bend release
| pbr Pre-bend release
| brb Bend release bend

************************************
Suggest correction
comments
print report bad tab
1 comment total.
0 reply
neonglow 10 Dec 03, 2015 12:15 PM

--2h3p2---
--------4-

guest
You may want to rate the tab now too:
select rating
Wanna post a correction for this tab? Suggest correction