Oops, an error
Loading. Please wait.

Ayer Tab

28 views 1 this week
no commentswrite comment
1 2 3 4 5
3 more votes to show rating
add to favorites
×
Save as Personal and add changes to this tab that will be seen only by you. Learn more ›
×
You can save this tab as Personal to edit and correct it or add notes. All changes will be seen only by you. Learn more »
save as personal
new!
launch autoscroll
font size
0
reset
how to read this tab
guitar tuner
Autoscroll
slow
fast
+/-
esc
set tempo
stop
Intro: G

G                      Am
Ayer una lágrima se echó a volar
y en tu barriguita se empezó a pintar
                           G            Am D
un espacio nuevo entre tu piel y el mar.
G                    Am
Ayer todo superó la realidad,
nada era mentira todo era verdad
                            G   G7
hojas secas te cubrian los pies.
C                    X1       F#   Bm
Ayer no habia más palabras que decir,
          X2   E             Am
de tu ombligo yo era un aprendiz,
          D                   G          Am D
de tu cariñito el hombre más feliz, oh oh.

*CORO
G
Hoy vuelve a crecer el tiempo,
Am
hoy regresa nuestra infancia,
           D
hoy esperamos un angel
 G              D
con paciencia y esperanza,
G
hoy vuelve a crecer el tiempo,
Am
hoy tus ojos tienen flores,
              D
hoy el sol y la llovizna
G             D
no nos ponen condiciones.


Solo (G - Am - G - Am - D)
e|-----7---6s7-7-7-8-10-6s7------------
B|--------------------------10-8-8s10--
G|-6s7---------------------------------
D|-------------------------------------
A|-------------------------------------
E|-------------------------------------

e|-6s7-7-7-8-10-6s7-------------------------
B|------------------10-8-8s10---------------
G|---------------------------------5-7-7s8--
D|-----------------------------5s7----------
A|------------------------------------------
E|------------------------------------------

e|-5-7-7-5------------------------------------------|
B|---------8----------------------------------------|
G|-----------7s9-7-------------------5s4------------|
D|-----------------7s9-7-7s5---5---5-----7-7--------|
A|---------------------------7---------------5h7-5--|
E|--------------------------------------------------|


G                      Am
Ayer cada dia te amo más que ayer
le daras el pecho y un panal de miel,
                         G     G7
desde tus adentros lo verás nacer.

C    X1           F#            Bm
Ayer Dios tuvo la vida y nos la dio
X2          E          Am
  en una peninsula del corazón
           D               G  Am         D
una nueva historia nos mandó, aaa la la la...


*CORO

G
lalalalalai lalaila
Am
lalalalalai lalaila
         D           G         D
lalalalalai lalaila lala lailala lalala.
G
lalalalalai lalaila
Am
lalalalalai lalaila
         D           G         D
lalalalalai lalaila lalalalala.


G                      Am
Ayer a la nueva le salió
un lunar, un punto de color
                           G
que hace juego con tu amanecer.


X1: X4565X
X2: X23230


                   ------
                º-|¤    ¤|-º
                º-| LuïS |-º
                º-|¤    ¤|-º
                        /
                    |  |
        ·===========================·
        | luis_6cuerdas@ |
        ·===========================·
Suggest correction
Give kudos to tab author, rate the tab!
1 2 3 4 5
comments
print report bad tab
guest
Wanna post a correction for this tab? Suggest correction