Oops, an error
Loading. Please wait.

Sentirme Vivo Tab

163 views 1 this week
no commentswrite comment
1 2 3 4 5
3 more votes to show rating
add to favorites
×
Save as Personal and add changes to this tab that will be seen only by you. Learn more ›
×
You can save this tab as Personal to edit and correct it or add notes. All changes will be seen only by you. Learn more »
save as personal
new!
launch autoscroll
font size
0
reset
how to read this tab
guitar tuner
Autoscroll
slow
fast
+/-
esc
set tempo
stop
==================
 INTRO:
==================

  G       D
|-------3---2-|2|-         | | = rasgueo
|-----3-------|3|-          
|---0-----2---|2|-
|-------------|0|-
|-2---------------
|-3---------------


==================
 PRIMERA PARTE: 
==================

           G             D     B7   Em7              C
|----------------3-------------2-----------0-----0---------3---
|----------3---3---3---------3---0-------3---3-----------1-----
|------------0-------0-----2-------2---0-------0-------0-----0-
|------------------------0-------------------------------------
|----------------------------------------------------3---------
|----------3-------------------2-----0-------------------------

 Voy a hacer...


      G             Am              C             D
|-3---3---------3---------0-----0---------0-----------3p2------
|-----3-3---3-------1---1-----1---------1---1---------3-----3--
|---------0-----------2-----2---------0-------0-----2-----2----
|-------------------------------------------------0------------
|-------------------0---------------3--------------------------
|--------------------------------------------------------------

                                                           Sil-


     G             D     B7   Em7          C                 G
|----3-----3-----3-------2-----------0---------------3-------3-
|------3-----3---------3---0-------3---3-----------1---1-----3-
|--------0-----0-----2-------2---0-------0-------0-------0-----
|------------------0-------------------------------------------
|--------------------------------------------2-3---------------
|----3-------------------2-----0-----------3-------------------

 baré...


              Am              D
|---------3---------0-----3---------3p2-------2-----2----------
|-3---3-------1---1-----1-----3---3-----3---3---3-----3--------
|---0-----------2-----2---------2---------2-------2-----2------
|-----------------------------0---------------0----------------
|-------------0------------------------------------------------
|--------------------------------------------------------------

                                                         Busca-


==================
 CORO:
==================

  Am     Em7      C               D       B7     Em7
|-0-------0---------------3-----------------------------0------
|-1-------3-------------1---1---------3---0-----------3---3----
|---2-------0---------0-------0-----2-------2-------0-------0--
|-----2-------0-----2-------------0-----------3----------------
|-0-------2-------3--------------------------------------------
|-----------------------------------------2-------0------------

 ré..                                                     Nada-


   Am     Em7      C               D       B7      Em7
|--0-------0-------------------3-------------------------0-----
|--1-------3-------------1---1---------3---0-----------3---3---
|----2-------0---------0---0---------2-------2-------0-------0-
|------2-------0-----2-------------0-----------3---------------
|--0-------2-------3-------------------------------------------
|------------------------------------------2-------0-----------

  ré...                                                     Han


      C             G              Em7              Am
|-----------3-------3-----3-----3-----------0---0-----------0--
|---------1---1-----3-3-----3-----------3-----0-----------1---1
|---0---0-------0-------0-----0-------0-----------------2------
|-0---------------------------------------------------2--------
|-----3-----------------------------2-------2-------0----------
|--------------------------------------------------------------

  crecido...               De tu vientre...


                  C               D               G        D
|---0-|0|---------------0-----0---------2-----2---3-----3--2---
|-----|1|-------------1---1-----------3---3---------3--------3-
|-2---|2|-----------0-------0-------2-------2---------0--------
|-----|2|---------2---------------0------------------------0---
|-----|0|------------------------------------------------------
|-------------------------------------------------3------------

        Sentirme vi...                        ...vo


        Am     Em7       Dsus              D
|---0-------0-------0-----------3-----3---|2|-
|-------1-------3-----3-------3---3-----3-|3|-
|-2-------2-------0---------2-------2-----|2|-
|-------------------------0---------------|0|-
|-------0-------2-----------------------------
|---------------------------------------------


(Lo siguiente es prácticamente lo mismo con algunos pequeños
cambios)


==================
 SEGUNDA PARTE:    
==================

        G             D     B7   Em7              C
|-------------3-----3-------------------0-----0---------3---3--
|-----------3---3---------3-----0-----3---3-----------1-------1
|---------0-------0-----2-----2-----0-------0-------0-----0----
|---------------------0----------------------------------------
|-------------------------------------------------3------------
|-------3-------------------2-----0----------------------------

 Voy a ser...


    G               Am              C             D
|---------3-----3---------0---------------0-----------3p2------
|-------3---3-----------1---1-----------1---1---------3-----3--
|-----0-------0-------2-------2-------0-------0-----2-----2----
|-------------------------------2-----------------0------------
|-------------------0---------------3--------------------------
|---3----------------------------------------------------------

                                                           Sil-


     G             D     B7   Em7          C                 G
|----3-----3-----3-------2-----------0---------------3---------
|------3-----3---------3---0-------3---3-----------1---1-------
|--------0-----0-----2-------2---0-------0-------0-------0-----
|------------------0-------------------------------------------
|--------------------------------------------2-3---------------
|----3-------------------2-----0-----------3-----------------3-

 baré...


                Am              D
|-----3-----3---------0-----0---------2-------2---3---2---3----
|---3---3-------1---1-----1---------3---3---3---3---3---3------
|-0-------0-------2-----2---------2-------2--------------------
|-------------------------------0-------------0----------------
|---------------0----------------------------------------------
|--------------------------------------------------------------

                                                         Busca-


==================
 CORO:
==================

  Am     Em7      C               D       B7     Em7
|-0-------0---------------3---3-------------------------0------
|-1-------3-------------1---1---------3---0-----------3---3----
|---2-------0---------0-------------2-------2-------0-------0--
|-----2-------0-----2-------------0-----------3----------------
|-0-------2-------3--------------------------------------------
|-----------------------------------------2-------0------------

 ré..                                                     Nada-


  Am     Em7      C               D       B7      Em7
|---------0-------------------3-------------------------0------
|-1-------3-------------1---1---------3---0-----------3---3----
|---2-------0---------0---0---------2-------2-------0-------0--
|-----2-------0-----2-------------0-----------3----------------
|-0-------2-------3--------------------------------------------
|-----------------------------------------2-------0------------

 ré...                                                      Han


      C             G              Em7              Am
|-----------3-------3-----3-----3---------------------------0--
|---------1---1-----3-3-----3-------3-----------3---------1---1
|---0---0-------0-------0-----0-------0-------0---------2------
|-0-------------------------------------0-------------2--------
|-----3-----------------------------2-------2-------0----------
|--------------------------------------------------------------

  crecido...               De tu vientre...


                     C               D               C    Em7
|---0-|0|--------------------3-----3-------2-----2-------0-----
|-----|1|------------------1---1---------3---3-------1-----3---
|-2---|2|----------------0-------0-----2-------2-----0-------0-
|-----|2|--------------2-------------0-------------------------
|-----|0|------------3-------------------------------3-----2---
|--------------------------------------------------------------

           Sentirme vi...                        ...vo


  D        G
|---2-----|3|-
|-----3---|3|-
|---------|0|-
|-0-------|0|-
|---------|2|-
|---------|3|-


=========================================================

Dedicada con todo mi corazón a mi niña, Denisse.

=========================================================


Realización por Raúl Pérez González.
Cualquier comentario o corrección, favor de escribir a
cinico_promo@
Suggest correction
Give kudos to tab author, rate the tab!
1 2 3 4 5
comments
print report bad tab
guest
Wanna post a correction for this tab? Suggest correction