Oops, an error
Loading. Please wait.

Tu Fotografia Tab

262 views 1 this week
1 commentread comment
1 2 3 4 5
2 more votes to show rating
add to favorites
launch autoscroll
font size
0
reset
how to read this tab
guitar tuner
×
Best way to learn
"Tu Fotografia"
Autoscroll
slow
fast
+/-
esc
set tempo
stop
Intro       Riff 1   (2)    Riff 1 y Riff 2 (2)

Riff 1
  C/F#                        G/F#
e------------------------------------------------------------|
B------------------------------------------------------------|
G-------0----0--------0----0--------0----0---------0----0----|
D------4----4--------4----4--------4----4---------4----4-----|
A--3-------------3-------------------------------------------|
E-------------------------------3--------------3-------------|

Riff 2

e--------8--------------8--------------7--------------7---------|
B---8-7-8--8-7-8---8-7-8--8-7-8---8-7-8--8-7-8---8-7-8--8-7-8---|
G---------------------------------------------------------------|
D---------------------------------------------------------------|
A---------------------------------------------------------------|
E---------------------------------------------------------------|


Am                       G/F#                   G/F#    324030
Me levanto en tu fotografía,
Am                              Em/F#           Em/F#   024030
me levanto y siempre allí estas tú,
Am                        Gadd9                 Gadd9   320203
en le mismo sitio y cada día,
            Am                     Riff 3
la misma mirada, el mismo rayo de luz.


El color ya no es el mismo de antes,
tu sonrisa casi se borró,
y aunque no estés claro yo te invento,
en mis pensamientos, y en mi corazón.

PRECORO
Bm6             E7            Am7                Bm6     0232300
Nadie tiene un pacto con el tiempo,
Cm7                        Gadd9   D/F#
ni con el olvido, ni el dolor,
 Em                        Am
si desapareces yo te encuentro,
                 C D(3)             Gadd9        D(3)    X54030
en la misma esquina, de mi habitación.

CORO
      Am7              D                     Gadd9
Cada día que pasa te pienso y te vuelvo a mirar,
       Am7
cada cosa en su sitio el pasado el presente,
        B7
en el polvo mis dedos, se juntan
             Em        D(3)      Cadd9  D(3)
y quieren tenerte, cambiando conmigo
         Am
No he movido tu foto, ni el tiempo en los años,
         B7                                Em
si me hablas de lejos procura avisarme temprano,
  D(3)       Cadd9    D(3)
y así controlarme.


Me levanto en tu fotografía,
cada día invento una actitud,
y aunque no se note el blanco y negro,
No me desespero, uso mi imaginación.

PRECORO (2 VOCES)
Bm6             E7            Am7
Nadie tiene un pacto con el tiempo,
Cm7                        Gadd9   D/F#
ni con el rocío de la flor, oh no!
 Em                     A4   A
si desapareces yo te encuentro,
                 Cadd9 D(3)        Gadd9
en la misma esquina, de mi habitación.

CORO

       D(3)   Cadd9 D(3)            Riff 1 y Riff 2
.. así imaginarme, que te tengo aquí, aquí,
             Riff 1 y Riff 2                Riff 1 y Riff 2
que te tengo aquí, aquí, que te tengo aquí, aquí,
              C/F#
que te tengo aquí.


Riff 3

e--------8--------------8---------|
B---8-7-8--8-7-8---8-7-8--8-7-8---|
G---------------------------------|
D---------------------------------|
A---------------------------------|
E---------------------------------|
Suggest correction
Give kudos to tab author, rate the tab!
1 2 3 4 5
comments
print report bad tab
1 comment total.
0 reply
medellinacordes 10 Aug 31, 2015 12:07 PM

Wow! Very pretty version of this . Thank you so much for this. Bien Hecho!

guest
You may want to rate the tab now too:
select rating
Wanna post a correction for this tab? Suggest correction