Oops, an error
Loading. Please wait.

Camina Chiquilla Tab

39 views 1 this week
no commentswrite comment
1 2 3 4 5
3 more votes to show rating
add to favorites
launch autoscroll
font size
0
reset
how to read this tab
guitar tuner
Autoscroll
slow
fast
+/-
esc
set tempo
stop
Help us to improve Ultimate-Guitar.com Take our survey!
×
Esta cancion va para mi novia Nydia Gisell Becerra Salas..Te QuIeRo MuCho NiÑa 


intro
                                         C      F                      
|--------|-------------------------|--3-----3-|-1-|----------------|
|--------|-----------7--5h7--------|----------|-3-|3h5--------5-3--|             
|--------|------6--5---------------|-----0----|-3-|----3h5--3------|
|-------8|-7--5--------------5~~---|-----0----|-2-|----------------|
|--5/7---|-------------------------|-----1----|-1-|----------------|
|--------|-------------------------|----------|-1-|----------------|

                          C     F
|---------------------|-3---3-|-1-|
|---------------------|-------|-3-|
|---------------------|---0---|-3-|
|------------------12-|---0---|-2-|
|--12/13~~-13--11-----|---1---|-1-|
|---------------------|-------|-1-|

C                  G                F
Cuanto tiempo necesito me pregunto yo    6|-1---1-|
                                         4|---2---|

C                  G                   F  
talves tanto como tu si quieres descubrirme   6|-1h3------------|
                                              5|------0-3/4-3---|

C                  G              F  
mucha pierna poca falda me das calor.  3|-3--3H5~~---|
                                        
C                        G                F      3|----------------12-|
no soy de piedra no me quedo nunca indiferente   2|--12/13~~-13-11----|

C                 G            F   
basta poco para enamorarse de ti  5|--3/5---------|
                                  4|--0/0---------|
                                  3|--3/5------9--|
                                  2|--------10----|
C              G          F
de ese modo escaso de vestirte   4|--3h5p3--|   

C                         G            F         6|--3h4p3h4p3--1--------|
desciende un poco de tu trono de sexo porque     5|----------------3h5-3-|

C                        G                F    
no soy de piedra no me quedo nunca indiferente  6|-1---1-|
                                                4|---2---|
C                        G                F  
yo soy un hombre no me quedo nunca indiferente  6|-1---1-|
                                    4|---2---|
y ahora

Coro:

Am        G            F
camina camina chiquilla
Am          G           F
camina chiquilla porque
Am                G         F
en mi camino hay miles de chicas
Am        G        F
tu nunca vas a volver
Am         G       F
yo no te quiero tener
                        F
6|--------------------|-1-|-------------------------------------|
5|-3h5----------------|-3-|-------------------------------------|
4|------3h5-----------|-3-|----------------------------13--10~~-|      
3|----------3-3/5~~---|-2-|----------------------13-11----------|
2|--------------------|-1-|-11/13--11/13--13-11-----------------|
1|--------------------|-1-|-------------------------------------|

C                  G                  F   
sin orgullo no se vive lo sabes muy bien          3|--3-3-3/5~----|
C                       G                      F
di del tuyo lo que has hecho dime donde ha quedado  4|---------------5--3---|
                                                    3|------8~~---5--3------|
                                                    2|-5/7------------------|
C                       G
soy extraño, un pobre loco
                  F                   6|--1h3--------------|
voy en busca de amores                5|------0--3h5p3-----|

C                        G                   F     6|--1h3------------|
no eres mujer si tu te quedas siempre indiferente  5|------0-3h5p3----|

                                       4|---------11----|
C                        G                   F     3|-------11------|
no eres mujer si tu te quedas siempre indiferente  2|-11/13---------|

y ahora
      
Coro:

Am        G            F     
camina camina chiquilla
Am          G           F
camina chiquilla porque
Am                G         F      
en mi camino hay miles de chicas
Am         G         F
mas tu no vas a volver  y ahora
Am        G            F     
camina camina chiquilla
Am          G           F
camina chiquilla porque
Am                G         F      
en mi camino hay miles de chicas
Am         G         F
mas tu no vas a volver

no te quiero tener


6|-------------------------------------------------|
5|-------------------------------------------------|
4|---------------------------------------5-7--9----|
3|----------------------------------9p7------------|
2|--------------------10-------10p8----------------|
1|-12--10-8--10-8-8-8----8-8-----------------------|

Coro:

Camina camina chiquilla....
Suggest correction
Give kudos to tab author, rate the tab!
1 2 3 4 5
comments
print report bad tab
guest
You may want to rate the tab now too:
select rating
Wanna post a correction for this tab? Suggest correction