Oops, an error
Loading. Please wait.

Falco A Meta Tab

34 views 1 this week
no commentswrite comment
1 2 3 4 5
3 more votes to show rating
add to favorites
launch autoscroll
font size
0
reset
how to read this tab
guitar tuner
Autoscroll
slow
fast
+/-
esc
set tempo
stop
Help us to improve Ultimate-Guitar.com Take our survey!
×
Author
Difficulty
novice
About this tab version
This solo tab is based off the studio recorded version. Was this info helpful? Yes No
Falco A Metà Solo Tab
Artist: Gianluca Grignani
Album: Destinazione Paradiso (1995)


[Solo] [Starts from 03:47]

E|---5\--------------------------------------------------------------------|
B|---5\--------------------------------------------------------------------|
G|-------------5b7r5~~--4h5--4--5--4--5------------------------------------|
D|---------------------------------------/7~~------------------------------|
A|-------------------------------------------------------------------------|
E|-------------------------------------------------------------------------|

E|-------------------------------------------------------------------------|
B|-------------------------------------------------------------------------|
G|--------5--7-----5--7b9r7~~---5--7b9r7-----------------------------------|
D|----/7--------7-------------------------/7~~-----------------------------|
A|-------------------------------------------------------------------------|
E|-------------------------------------------------------------------------|

E|-------------------------------------------------------------------------|
B|-------------------------------------------------------------------------|
G|-------------5b7r5~~--4h5--4--5--4--5------------------------------------|
D|---------------------------------------/7~~------------------------------|
A|-------------------------------------------------------------------------|
E|-------------------------------------------------------------------------|

E|---------------8--8--8~~-|-8--8--10b12r10b12~~--8--10b12r10--------------|
B|--------8--10------------|-----------------------------------8/10~~------|
G|---/9--------------------|-----------------------------------------------|
D|-------------------------|-----------------------------------------------|
A|-------------------------|-----------------------------------------------|
E|-------------------------|-----------------------------------------------|

E|----8b10r8~~--7h8--7--8--7--8--------------------------------------------|
B|-------------------------------8/10~~------------------------------------|
G|-------------------------------------------------------------------------|
D|-------------------------------------------------------------------------|
A|-------------------------------------------------------------------------|
E|-------------------------------------------------------------------------|

E|------------17------17--17--17~~-|-17-17-17-17--20--15--15/17~-----------|
B|--------17------20---------------|---------------------------------------|
G|---/19---------------------------|---------------------------------------|
D|---------------------------------|---------------------------------------|
A|---------------------------------|---------------------------------------|
E|---------------------------------|---------------------------------------|

E|----8b10r8vv--7h8--7--8--7--8--------------------------------------------|
B|-------------------------------8/10~~------------------------------------|
G|-------------------------------------------------------------------------|
D|-------------------------------------------------------------------------|
A|-------------------------------------------------------------------------|
E|-------------------------------------------------------------------------|

*********************************** 

| h Hammer-on 
| / Slide-up 
| \ Slide-down
| b Bend 
| r Release
| ~ Vibrato 

***********************************
Suggest correction
Give kudos to tab author, rate the tab!
1 2 3 4 5
comments
print report bad tab
guest
You may want to rate the tab now too:
select rating
Wanna post a correction for this tab? Suggest correction