Oops, an error
Loading. Please wait.

Slayer tab

181 views 1 this week
1 commentread comment
1 2 3 4 5
2 more votes to show rating
add to favorites
×
Save as Personal and add changes to this tab that will be seen only by you. Learn more ›
×
You can save this tab as Personal to edit and correct it or add notes. All changes will be seen only by you. Learn more »
launch autoscroll
font size
0
reset
how to read this tab
guitar tuner
edit
Autoscroll
slow
fast
+/-
esc
set tempo
stop
Author
Difficulty
intermediate
Slayer

I think Joe uses a 12 sting guitar for this song but it sounds fine on a regular guitar
Theirs a few different ways you can play this just interoperate this to how you want to play it  

[Intro]

e|---------------------------|
B|---------------------------|
G|---------------------------| 
D|-11-9-9-9-9-9-9-9-9-9-9----| x 3
A|-0--0-0-0-0-0-0-0-0-0-0----|
E|---------------------------|

e|---------------------------------|
B|---------------------------------|
G|---------------------------------|
D|-11-9-9-11-9-9-11-9-9-11-9-9-9---|
A|-0--0-0-0--0-0-0--0-0-0--0-0-0---|
E|---------------------------------|


[Verse]

e|----------------------------------------------------|
B|----------------------------------------------------|
G|----------------------------------------------------|
D|----------------------------------------------------|
A|-9-11-11-11-11-11-11-11-11-11-11-14-14-12-12-11-7---|
E|-0-0--0--0--0--0--9--9--9--9--9--0--0--0--0--0--0---|

e|-----------|
B|-----------|
G|-8-8-9-9---|
D|-6-6-6-6---| x 2 between verses
A|-7-7-7-7---| x 4 before chorus
E|-0-0-0-0---|


[Chorus]

e|-0-0-0-0-0-0-0-0-0-0-0-0-0-0-0-0-0-0-0-0---|
B|-0-0-0-0-0-0-0-0-0-0-0-0-0-0-0-0-0-0-0-0---|
G|-9-9-9-9-9-6-6-6-6-6-8-8-8-8-8-9-9-9-9-9---|
D|-9-9-9-9-9-6-6-6-6-6-6-6-6-6-6-6-6-6-6-6---| repeat
A|-0-0-0-0-0-0-0-0-0-0-7-7-7-7-7-7-7-7-7-7---|
E|-----------------------0-0-0-0-0-0-0-0-0---|


[Outro]

e|-------------------|
B|-------------------|
G|-6-4-11-13-7-9-9---|
D|-------------------| repeat
A|-5-2-9--11-5-6-6---|
E|-0-0-0--0--0-0-0---|



            
            
Suggest correction
Creating personal tab
Creating personal tab
You can edit any tab online and save it as your Personal.

You can edit, replace or remove any tab part or add personal notes – all changes will be seen only by you.

Personal tabs can be accessed anytime from any device, even offline.
Learn more »
Give kudos to tab author, rate the tab!
1 2 3 4 5
comments
print report bad tab
1 comment total.
0 reply
AlexMacky 197 Sep 05, 2017 02:58 PM

Thanks for tabbing this one. Long live Giant Drag.

guest
You may want to rate the tab now too:
select rating
Wanna post a correction for this tab? Suggest correction