Oops, an error
Loading. Please wait.

Sevengill Notorynchus Cepedianus bass

191 views 1 this week
no commentswrite comment
1 2 3 4 5
2 more votes to show rating
add to favorites
×
Save as Personal and add changes to this tab that will be seen only by you. Learn more ›
×
You can save this tab as Personal to edit and correct it or add notes. All changes will be seen only by you. Learn more »
launch autoscroll
font size
0
reset
guitar tuner
edit
Autoscroll
slow
fast
+/-
esc
set tempo
stop
-------------------------------------------------------------------------------
                SEVENGILL (NOTORYNCHUS CEPEDIANUS) – Giant Squid
-------------------------------------------------------------------------------

Tabbed By : The Darth Trainman
e-mail: thedarthtrainman@gmail.com

Tuning: BEADG
1:13

G|-----------|
D|-----------|
A|-----3-----|
E|-6-----5-3-|
B|-----------|

Riff A:
G|-------------------------------|
D|-------------------------------|
A|-5-3-----6-------------35686---|
E|-----6-----5-3---3-5-6------53-|
B|-------------------------------|

Riff A x3

Riff A1:
G|-----------------|
D|-----------------|
A|-5-3-----6-------|
E|-----6-----5-3---|
B|-----------------|
Riff A1 x3

Riff A2:
G|---------------|
D|---------------|
A|-5-3---35686---|
E|-----6------53-|
B|---------------|

Riff A1 x1

2:13
Riff B:
G|---------------------------------------------------|
D|------------------------------------------1--------|
A|-5-3-1~-----1---6-----------5-3-1~----1------------|
E|-----1~---1---------5--63-------1~--1--------1-3---|
B|-------------------------------------------------3-|

G|-------------------------------------------------|
D|-------------------------------------------------|
A|-5-3-1~-----1---6-----------5-3-1~----1---6--5-3-|
E|-----1~---1---------5--63-------1~--1------------|
B|-------------------------------------------------|
 
Riff B x1
2:55


G|-----------|
D|-----------|
A|-----3-----|
E|-6-----5-3-|
B|-----------|

Riff A x1
Riff A1 x3
Riff A2 x1
Riff A1 x1

3:34:
Riff B x1
(but instead of 5 3, at the very end, play 8 10)
 
4:42:
Riff C:
G|-------------------------------|
D|-------------------------------|
A|-6-5-3---3-------6-5-353-------|
E|-----------6-3-----------6-5-3-|
B|-------------------------------|

Riff C x4

5:18:
Riff D:
G|-------------|
D|-------------|
A|-------------|
E|-----3---4---|
B|-3-----------|

Riff D x8

Riff C x4

Riff D x8

| /  slide up
| \  slide down
| h  hammer-on
| p  pull-off
| ~  vibrato
| +  harmonic
| x  Mute note
===============================================================================

            
            
Suggest correction
Creating personal tab
Creating personal tab
You can edit any tab online and save it as your Personal.

You can edit, replace or remove any tab part or add personal notes – all changes will be seen only by you.

Personal tabs can be accessed anytime from any device, even offline.
Learn more »
Give kudos to tab author, rate the tab!
1 2 3 4 5
comments
print report bad tab
guest
You may want to rate the tab now too:
select rating
Wanna post a correction for this tab? Suggest correction