Oops, an error
Loading. Please wait.

Suvise Sam Njen Chords

245 views 1 this week
no commentswrite comment
1 2 3 4 5
3 more votes to show rating
add to favorites
launch autoscroll
font size
0
reset
transpose
0
reset
simplify chords
display chords
guitar tuner
Autoscroll
slow
fast
+/-
esc
set tempo
stop
Help us to improve Ultimate-Guitar.com Take our survey!
×
Author
Gibonni
SUVIŠE SAM NJEN

       Synth arr. za gitaru
e|--7--15-14-15-12-14-10-12-8-10-7-8-5-7-3-5-2-3-0--|
H|--8-----------------------------------------------|
G|--9-----------------------------------------------|
D|--9-----------------------------------------------|
A|--7-----------------------------------------------|
E|--------------------------------------------------|
                                                       C
e|---------------------|---------------------|-------------------------|
H|------8~-7~----------|------10------10~-8~-|--7~/----5~--------------|
G|----9----------------|----9-------9--------|-------------------------|
D|--9------------------|--9-------9----------|-------------------------|
A|---------------------|---------------------|-------------------------|
E|---------------------|---------------------|-------------------------|
                                                         S bezbroj ...

C                    D
S bezbroj nepoznatih boja
Em                  D       Em
  Vrijeme crta bore na licu mom
C                      B   B/A
Ko brod zaboravljen od mora
       Em             D  Em
O boze lud sam za njom

C                  D
I sve je tako kako treba
B      B/A          Em
Sve na svome mjestu isto je ko prje
C                D
Samo fali ljubav njena
      Am         B
Da me vrati na tren


       Em
O boze suvise sam njen
C       G               D  G
 O boze suvise sam njen
         C
I dodjoh da te zamolim
       D
Daj mi da je ne volim
         Em  Am  B
Bar za tren
     Em
Boze Suvise Sam Njen


C                  D
Bol je stvorene od nota
Em                  D         Em
  I zato nocas necu pjevati o njoj
C                     B    B/A
Nisam grana s bezbroj kora
       Em             D  Em
O boze lud sam za njom

C                  D
I sve je tako kako treba
B      B/A          Em
Sve na svome mjestu isto je ko prje
C                D
Samo fali ljubav njena
      Am         B
Da me vrati na tren


       Em
O boze suvise sam njen
C       G               D  G
 O boze suvise sam njen
         C
I dodjoh da te zamolim
       D
Daj mi da je ne volim
         Em  C  D
Bar za tren  He Heej
Em
O boze suvise sam njen
C       G               D  G
 O boze suvise sam njen
         C
I dodjoh da te zamolim
       D
Daj mi da je ne volim
         Em  D Em
Bar za tren
        C
I dodjoh da te zamolim
       D
Daj mi da je ne volim
         Em  Am  B
Bar za tren
                Em
Boze Suvise Sam Njen


AKORDI:
     B     B/A
e|---------------|
H|---4------4----|
G|---4------4----|
D|---4------4----|
A|---2------0----|
E|---------------|
Suggest correction
Give kudos to tab author, rate the tab!
1 2 3 4 5
comments
print report bad tab
guest
You may want to rate the tab now too:
select rating
Wanna post a correction for this tab? Suggest correction