Oops, an error
Loading. Please wait.

Cuba Bass Tab

1,675 views 3 this week
no commentswrite comment
1 2 3 4 5
please rate
add to favorites
launch autoscroll
font size
0
reset
guitar tuner
Autoscroll
slow
fast
+/-
esc
set tempo
stop
Help us to improve Ultimate-Guitar.com Take our survey!
×
Author
Difficulty
advanced
BasS Tablature Template @ tTabs: Guitar, Bass, and Drum tabs
Artist: GIBSON BROTHERS
Album: Greatest Hits
Song: CUBA
Tabbed by: Musicman999
Tuning: EADG

Verse
G|----88--------------------------------------------------------------------------|
D|-------876-6------643-----------------------------------------------------------|
A|-6------------------------------------------------------------------------------|
E|-------------4--6---------------------------------------------------------------|

Chorus
G|--------------------------------------------------------------------------------|
D|------99--998-8-----------------------------------------------------------------|
A|---------------------643--------------------------------------------------------|
E|-6/7------------6-6-------------------------------------------------------------|

Chorus to verse changover
G|--------------------------------------------------------------------------------|
D|------8-643---------------------------------------------------------------------|
A|--------------------------------------------------------------------------------|
E|--6-6---------------------------------------------------------------------------|

Outro (verse to outro)
G|-----------------888-------------------888--------------------------------------|
D|(643)-----------------6-8-9-999------------6-8-9--------------------------------|
A|-------4---6-8-9-----------------6-8-9------------------------------------------|
E|----------------------------------------------------66--------------------------|

As ever with a funk song,improvise.Listen to chorus to get the feel (leave the 643 run out,
until you get it).The song doesn't have an outro but try the above.It works very well
(tempo is de-de-de dedede).

Enjoy.

LEGEND AND NOTES:
h: Hammer-on            p: Pull-off         b: Bend string up
r: Unbend string        /: Slide up         \: Slide down
: Harmonics       x: Muted string     v: Vibrato
t: Tap

Well i found this its just my contribution of bringing it to UG not tabbing it 
was tabbed 1/2 step lower and transposed it to standard tunning.Thanks to the original tabber!
Suggest correction
Give kudos to tab author, rate the tab!
1 2 3 4 5
comments
print report bad tab
guest
You may want to rate the tab now too:
select rating
Please do not post tabs as comments. Select "correction" instead!