Oops, an error
Loading. Please wait.

Akhirnya Tab

by GIGI
15,485 views 9 this week
1 commentread comment
1 2 3 4 5
excellent!
x 4
add to favorites
launch autoscroll
font size
0
reset
how to read this tab
guitar tuner
Autoscroll
slow
fast
+/-
esc
set tempo
stop
Help us to improve Ultimate-Guitar.com Take our survey!
×
Author
yoosyoes 1,054
Song        : Akhirnya (acoustic)
Artist      : Gigi
Tabbed by   : yoos (yoosyoes.blogspot.com)



@intro...
e|--0-----0-0-----5-3-----3-3-------0-----0-0-----0---------------3---|
B|------1-------1-------1-------1-------1-------1---3-----3-----3-----|
G|------------2-------0-------0---0---2-------2-------4-----4h5-------|
D|----3-----3-------2-------2-------0-------0-----------5-------------|
A|--------------------------------------------------------------------|
E|--------------------------------------------------3-----------------|

e|--0-----0-0-----5-7-----7-7-------8-----8-8-------3-----3-----3-----|
B|------1-------1-------5-------5-------6-------6-------3-----3-------|
G|------------2-------5-------5---5---5-------5---5---4-----4---------|
D|----3-----3---------------------------------------------------------|
A|------------------7-------7-------5-------5-------------------------|
E|--------------------------------------------------3-----------------|

@kusadari akhirnya...
e|--------0-------0-------0-------0-------1-------0-------------------|
B|------1-------1-------1-------1-------1-------1-------1-3-----3-----|
G|----0-------0-------2-------2-------2-------0-------0-------0-------|
D|----------------------------------3-------2-------0-------0---------|
A|--3-------3-------3-------3-----------------------------------------|
E|--------------------------------------------------------------------|

e|--------------0-------3-------0---------------0---0-----0-----0-----|
B|--0---3---1-------1---------------0---3---1-----------3---3---------|
G|----0---0---2---2---2---2---4---4---0---0---2---2---2-------2-------|
D|--2---------------3-------5-------2---------------0-----0-----------|
A|----------0-------------------------------0-------------------------|
E|--------------------------------------------------------------------|

e|--------------3--|
B|--3---1-3-0------|
G|----0-------0----|
D|-----------------|
A|-----------------|
E|--3-------3------|

e|--------0-------0-------0-------0-------1-------0-------------------|
B|------1-------1-------1-------1-------1-------1-------1-3-----3-----|
G|----0-------0-------2-------2-------2-------0-------0-------0-------|
D|----------------------------------3-------2-------0-------0---------|
A|--3-------3-------3-------3-----------------------------------------|
E|--------------------------------------------------------------------|

e|--------------0-------3-------0---------------0---------0-----------|
B|--0---3---1-------1---------------0---3---1-------3---3---3---0-----|
G|----0---0---2---2---2---2---4---4---0---0---2---2---2-------0---0---|
D|--2---------------3-------5-------2---------------0-----------------|
A|----------0-------------------------------0-------------------------|
E|----------------------------------------------------------3---------|

e|--------0-1-----1-0-----0-----3--|
B|--1---1-------1-------1---3------|
G|----0-------2-------0-------0----|
D|----------3----------------------|
A|--3---------------3--------------|
E|--------------------------3------|

@oh tuhan...
e|----------------0-----1-------3----|
B|--1---3---1---1---3-----3-3-----3--|
G|----0---0---2-------2-------0------|
D|------------------0----------------|
A|--3-------0------------------------|
E|--------------------------3--------|

e|----------------0-----1---------0--|
B|--1---3---1---1---3-----3-3---3----|
G|----0---0---2-------2-------0------|
D|------------------0----------------|
A|--3-------0------------------------|
E|--------------------------3--------|

e|------0-------5---------------5--------1-------0-------1---0--------|
B|--0-------------------9------------1-------0-----0-1---------3-1----|
G|----0---0-5-----5-9-----9-5-----5----2---2---0-------2---2-------0--|
D|--2---------7-------9-------7------0-------2-------0----------------|
A|------------------7-------------------------------------------------|
E|----------5---------------5--------------------------------3--------|

e|----------------0-----1-------3----|
B|--1---3---1---1---3-----3-3-----3--|
G|----0---0---2-------2-------0------|
D|------------------0----------------|
A|--3-------0------------------------|
E|--------------------------3--------|

e|----------------0-----1---------0--|
B|--1---3---1---1---3-----3-3---3----|
G|----0---0---2-------2-------0------|
D|------------------0----------------|
A|--3-------0------------------------|
E|--------------------------3--------|

e|--------------5---------------5----5---3---3-----3-1-----1-0--------|
B|------9---------------9------------------------1-------3-----3-1-0--|
G|--9-----9-5-----5-9-----9-5-----5----5---5---0-------2--------------|
D|----9-------7-------9-------7------3-------2-------0----------------|
A|--7---------------7-------------------------------------------------|
E|----------5---------------5--------------------------------3--------|

@kembali padamu
e|------0-------0-------0-------0-------0-------0-------0-------0-----|
B|--------------------------------------------------------------------|
G|----5---5---5---5---4---4---4---4---4---4---4---4---2---2---2---2---|
D|--7-------7-------6-------6-------5-------5-------4-------4---------|
A|--------------------------------------------------------------------|
E|--------------------------------------------------------------------|

e|----------------------------------------0-0-----0-------------------|
B|------1-------1-------0-------0-------1-------1---3---1-3-----1-----|
G|----2---2---2---2---0---0---0---0---2-------2-------0-------0---0---| 
D|--3-------3-------2-------2-------0-------0-------------------------|
A|--------------------------------------------------------------------|
E|--------------------------------------------------3-------3---------|

e|----------------------------------3-----3-3-------0-----0-1---------|
B|------1-------1-------0-------0-------3-------3-------1-------1-----|
G|----2---2---2---2---0---0---0---0---0-------0---0---2-------2---2---| 
D|--3-------3-------2-------2-------1-------1-------0-------0---------|
A|--------------------------------------------------------------------|
E|--------------------------------------------------------------------|

e|--0-----3-0--------|
B|------1-----3-1----|
G|----0-----------0--|
D|-------------------|
A|-------------------|
E|--3----------------|
Suggest correction new What's this?
You can suggest a correction to this tab. Community and Mods will review your correction and vote to approve or reject it.
comments
print report bad tab
1 comment total.
0 reply
Khaiazizburns 31 wrote on June 16 2011, 08:52 am

Good tab! 5*

guest
You may want to rate the tab now too:
select rating
Please do not post tabs as comments. Select "correction" instead!