Oops, an error
Loading. Please wait.

Pacific Ocean Blues tab

22 views 1 this week
no commentswrite comment
1 2 3 4 5
3 more votes to show rating
add to favorites
×
Save as Personal and add changes to this tab that will be seen only by you. Learn more ›
×
You can save this tab as Personal to edit and correct it or add notes. All changes will be seen only by you. Learn more »
launch autoscroll
font size
0
reset
how to read this tab
guitar tuner
edit
Autoscroll
slow
fast
+/-
esc
set tempo
stop
Author
About this tab version
The first tab of Pacific Ocean Blues uploaded in ultimate-guitar. Was this info helpful? Yes No
song:   Pacific Ocean Blues
artist: Gigolo Aunts
tuning: standard
capo:   4th fret (chords relative to capo)


[Intro]

C - C/B - Am7 - Em - F -- G

   C            C/B            Am7           Em
e|-0-------------0-------------0-------------0-------------|
B|---------3-------------3-----1-------1-----0-------0-----|
G|-----0-------0-----0-------0-----0-------0-----0-------0-|
D|---2-------2-----0-------0-----2-------2-----2-------2---|
A|-3-------------2-------------0---------------------------|
E|-------3-------------3-------------0-------0-----0-------|


   F                           G
e|-0-------0-----0-------0-----3-------3-----3------|
B|-1-------------1-------------3-------------3------|
G|-----2-------2-----2-------2-----0-------0------0-|
D|---3-------3-----3-------3-----2-------2-----2----|
A|--------------------------------------------------|
E|-1-----1-------1-----1-------3-----3-------3------|


[Verse]

   C            C/B            Am7           Em
e|-0-------------0-------------0-------------0-------------|
B|---------3-------------3-----1-------1-----0-------0-----|
G|-----0-------0-----0-------0-----0-------0-----0-------0-|
D|---2-------2-----0-------0-----2-------2-----2-------2---|
A|-3-------------2-------------0---------------------------|
E|-------3-------------3-------------0-------0-----0-------|


   F                           G
e|-0-------------0-------------3-------------3------|
B|-1-------1-----1-------1-----3-------3-----3------|
G|-----2-------2-----2-------2-----0-------0------0-|
D|---3-------3-----3-------3-----2-------2-----2----|
A|--------------------------------------------------|
E|-1-----1-------1-----1-------3-----3-------3------|



[Chorus]

F - G - (3x) F, G, Em, F, G

   F                           G
e|-0-------------0-------------0-------------0------|
B|-1-------1-----1-------1-----3-------3-----3------|
G|-----2-------2-----2-------2-----0-------0------0-|
D|---3-------3-----3-------3-----2-------2-----2----| 
A|--------------------------------------------------|
E|-1-----1-------1-----1-------3-----3-------3------|(x3)


e|-------0--1--3--|
B|-1--3--0--1--3--|
G|-2--0-----------|
D|----------------|
A|----------------|
E|-1--3--0--1--3--|


[Instrumental]

Bm -- Em -- Bm -- Em -D/F# - G


e|-2-------------2-------------0-------------0-------------|
B|---------3-------------3-------------0-------------0-----|
G|-----4-------4-----4-------4-----0-------0-----0-------0-|
D|---4-------4-----4-------4-----2-------2-----2-------2---|
A|-2-------------2-----------------------------------------|
E|-------2-------------2-------0-----0-------0-----0-------|

e|-2-------------2-------------0-------------2-------------3-------------3--|
B|---------3-------------3-------------0-------------3-------------3-----3--|
G|-----4-------4-----4-------4-----0-------0-----0-------0-----0-------0----|
D|---4-------4-----4-------4-----2-------2-----0-------0-----0-------0------|
A|-2-------------2-------------------------------------------------------2--|
E|-------2-------------2-------0-----0-------2-----2-------3-----3-------3--| to chorus


Pacific Ocean Blues - Gigolo Aunts


[Intro]

C - C/b - Am7 - Em - F - G


[Verse 1]

C  C/B      Am7 - Em
Tell me the story
   F           G
Of how i was away
C  C/B        Am7   Em
when you just woke up
    F                G
and couldnt face the gray of winter


[Chorus]

F           G
And in the end
F                   G
will we still be friends
F           G
and in the end
F   G   Em   F   G
just around the bend


[Verse 2]

C  C/B      Am7 - Em
Read me a chapter
   F                G
of how you filled a box
      C C/B         Am7      Em
with five years of photographs
    F               G
and put them under lock beneath you


[Chorus]

F           G
And in the end
F                   G
will we still be friends
F           G
and in the end
F   G   Em   F   G
just around the bend


[Instrumental]

Bm -- Em -- Bm -- Em - D/F# - G


[Chorus]

F           G
And in the end
F                   G
will we still be friends
F           G
and in the end
F   G   Em   F   G
just around the bend
Suggest correction
Creating personal tab
Creating personal tab
You can edit any tab online and save it as your Personal.

You can edit, replace or remove any tab part or add personal notes – all changes will be seen only by you.

Personal tabs can be accessed anytime from any device, even offline.
Learn more »
Give kudos to tab author, rate the tab!
1 2 3 4 5
comments
print report bad tab
guest
You may want to rate the tab now too:
select rating
Wanna post a correction for this tab? Suggest correction