Oops, an error
Loading. Please wait.

Crocodile Tears Tab

341 views 1 this week
no commentswrite comment
1 2 3 4 5
3 more votes to show rating
add to favorites
launch autoscroll
font size
0
reset
how to read this tab
guitar tuner
Autoscroll
slow
fast
+/-
esc
set tempo
stop
Help us to improve Ultimate-Guitar.com Take our survey!
×
Author
Difficulty
Tuning
novice
D# G# C# F# A# D#
Song: Crocodile Tears
Artist: Gilby Clarke
tab by Nano Dude
e-mail: mariachi_boo@yahoo.com.ar

Taken from the album "Swag"


Intro: (riff1)x2 (riff2)x2

w/(riff3)x4
I heard a boom and a crash, was that another regret
Slammin' me for my past, I can't remember to forget
Check your pulse you're a wreck, a twist of passionate affection
The thrills that drive you wild, fetish driven collision

Chorus

C5        G5                   D5              F5       E5        C5
   I can love you better than that - and the Crocodile Tears you cry
         G5                D5              F5       E5       (riff1)x2
I won't leave you on your back - and the Crocodile Tears you cry
The Crocodile Tears you cry, the Crocodile Tears

Your tantrums turn me on, a drama queen bitch
Tie me tighter tonight, you deserve what you get

Chorus

Bridge {I'm not sure about the bridge, so if you can help, it will be awsome}
There's nothing you can do
When your backs against the wall
And the straps are on your wrist
Can you fight through a tortured soul?

Solo

(riff2)x2

Chorus


riff1:
e||-------------------------||
B||----------------3------0-||
G||--------------2-----2----||
D||------------3-----2------||
A||--0-2-3-2-0--------------||
E||-------------------------||

riff2:
e||------------------------------|-------------------||
B||------------------------------|-------------------||
G||--------5--7--7b8b7--5--7--5--|--------5--7--7b8--||
D||--7--7--5--7--7b8b7--5--7--5--|--7--7--5--7--7b8--||
A||------------------------------|-------------------||
E||------------------------------|-------------------||

riff3:
e|-----------------|--------------|------------------|--------------||
B|-----------------|--------------|------------------|--------------||
G|-----5--7b8b7--5-|-----5--7b8---|-----5--7b8b7--5--|-----5--10--8-||
D|--7--5--7b8b7--5-|--7--5--7b8---|--7--5--7b8b7--5--|--7--5--10--8-||
A|-----------------|--------------|------------------|--------------||
E|-----------------|--------------|------------------|--------------||

Chords Used:

C5: x355xx
G5: 355xxx
D5: x577xx
F5: x8.10.10xx
E5: x799xx

N    N    AA    N    N    OO
NN   N   A  A   NN   N   O  O
N N  N  A    A  N N  N  O    O
N  N N  AAAAAA  N  N N  O    O
N   NN  A    A  N   NN  O    O
N    N  A    A  N    N   O  O
N    N  A    A  N    N    OO
Suggest correction
Give kudos to tab author, rate the tab!
1 2 3 4 5
comments
print report bad tab
guest
You may want to rate the tab now too:
select rating
Wanna post a correction for this tab? Suggest correction