Oops, an error
Loading. Please wait.

El Arruinao Tab

55 views 1 this week
no commentswrite comment
1 2 3 4 5
3 more votes to show rating
add to favorites
launch autoscroll
font size
0
reset
how to read this tab
guitar tuner
×
Best way to learn
"El Arruinao"
Autoscroll
slow
fast
+/-
esc
set tempo
stop
Name: Mario A. Úsuga
-----------------------
Mario A. Úsuga 2000
marious18@
------------------------
'In my tabs I trust'
------------------------
(29/12/2000)
------------------------
*Importante!* Esta es mi interpretación de la
canción, no ha sido sacada de ningún libro ni revista 
especializada. Cualquier parecido con la canción,
(y lo digo en serio) es pura coincidencia.


Artista:      Gildardo Montoya
Titulo :      El Arruinao

This is a GREAT song, taken from the album 'El gitano Groserón 
y otros éxitos de parranda',

Tuning:- Regular;


      Riff 1:
               F#m                 C#                        F#m            
  e -------------------------------------------------------------
  B -------9---10---10-10-10-12-10--9-----------9-9-9-9-10-9-----
  G ----11--------------------------------10-11---------------11-
  D -11--------------------------------11------------------------
  A -------------------------------------------------------------
  E -------------------------------------------------------------
                                C#                          F#m
  e -------------------------------------------------------------
  B -------9-10-10-10-10-12-10--9------------9-9-9-9-10-9--------
  G ----11-----------------------------10-11----------------11---
  D -11----------------------------11----------------------------
  A -------------------------------------------------------------
  E -------------------------------------------------------------
                 
  e -------------
  B -------------
  G -------------
  D -11----------                Fin del Riff 1
  A ---12-11-10--
  E -------------


     Riff 2:
  e -------------
  B -12-9--------
  G ------10-----
  D ---------11--
  A -------------
  E -------------

      Riff 3
  e -------------
  B -------------
  G -11----------
  D ---11--------
  A -----12-9----
  E -------------
    
---------------------------------------------------------------------------------------------
 
      Riff 1 


              F#m                                                 C#    Riff 2 
   Si hubieran huevos le fritaba uno pero como hago si no hay manteca
                                                                  F#m    Riff 3
   si hubiera quesito le daba un pedazo pa' que si es que no hay arepa
                                                                  C#     Riff 2
   si hubiera limón le hacía limonada pero no puedo no hay ni agüita     
                                                                 F#m     Riff 3
   si tuviera arroz le hacía almuerzo pero no hay platos ni cucharita
                                                           C#           Riff 2
   si hubiera platanos le asaba uno pero demalas no hay parrilla
                                                                F#m      Riff 3
   si hubiera buñuelos también le daría pero pa' que si no hay natilla
               Bm                                                  F#m
   si hubiera olla le hacía agua dulce pero yo que hago si no hay panela
                                C#                           F#m
   si hubiera fogón le fritaba carne pero disculpe no hay cazuela
   


   coro:
               Bm                                             F#m
   ah bueno de eso pa comer con esto como es de bueno eso con esto 
                                     C#
   si hubiera de eso yo comía con de esto pero no hay de eso pa comer con  
      F#m
    de esto (bis)

     
        Riff 1


               F#m                                           C#           Riff 2
   Si fuera soltero te daba un besito pero no puedo yo soy casado
                                                           F#m            Riff 3
   si tuviera parva te daba merienda pero perdona no hay cacao
                                                                 C#       Riff 2
   si hubiera papas le hacía sancocho pero no hay yucas ni tengo sal
                                                                F#m       Riff 3
   ah bueno menuda pa darle un peso pero no hay gruesa para cambiar
                                                                   C#    
   que le de 30 usted pa' que 20 si 15 es mucho que va a hacer con 10
                                                              F#m         Riff 3
   si le doy 5 usted se los gasta tenga estos 4 y me devuelve 3
                                                                C#        
   si hubiera azúcar le hacía tinto pero como hago si no hay café
                                                            F#m           Riff 3
   si hubiera vino le daba un trago pero la copa ya la quebré 
             Bm                                                F#m
   a bueno sueño pa' dormir contigo yo estoy solito no está mi mama
                                  C#                             F#m
   si hubiera almohada con mucho gusto pero pa' que si no tengo cama
  


   coro:
               Bm                                             F#m
   ah bueno de eso pa comer con esto como es de bueno eso con esto 
                                     C#
   si hubiera de eso yo comía con de esto pero no hay de eso pa comer con  
      F#m
    de esto (bis)


-------------------------------------------------------------------------------------------

                           ACORDES:


                               O TAMBIEN:

         F#m      C#      Bm                        F#m     C#    Bm
  E ------2-------4-------2---               E ------9------9-----7---
  B ------2-------6-------3---               B ------10-----9-----7---
  G ------2-------6-------4---               G ------11-----10----7--- 
  D ------4-------6-------4---               D ------11-----11----9---
  A ------4-------4-------2---               A ------9------11----9---
  E ------2-------0-------0---               E ------X------9-----7---


       INCLUSO:


         F#m      C#      Bm                 
  e ------5-------1-------10---               
  B ------7-------2-------12---               
  G ------6-------1-------11---             
  D ------4-------3-------9----            
  A ------X-------4-------X----              
  E ------X-------X-------X----               


  yo recomiendo que estos acordes se toquen alternados para darle  mayor dinamismo a la canción.
  espero que les haya gustado y la disfruten (sobretodo en los diciembres)

-----------------------------------------------------------------------------------------------  


 Handmade in Medellín 
 By Mario A. Úsuga C.
  marious18@
 All rights reserved.
 Copyright 2000 


  Si algo no les quedó claro,si les gustó, si no,si tienen alguna inquietud, pregunta,duda,

  corrección, aclaración,   comentario, o lo que se les ocurra escriban:
                                                                        marious18@


     ¡¡¡¡¡¡¡¡¡¡¡¡¡¡¡¡¡¡¡¡BUENO PUES QUE ES PA` QUE SE LO PARRANDEEN!!!!!!!!

************************************************************************************************
                                  FELIZ AÑO 2001
Suggest correction
Give kudos to tab author, rate the tab!
1 2 3 4 5
comments
print report bad tab
guest
You may want to rate the tab now too:
select rating
Wanna post a correction for this tab? Suggest correction