Oops, an error
Loading. Please wait.

El Enterrador Tab

53 views 1 this week
no commentswrite comment
1 2 3 4 5
2 more votes to show rating
add to favorites
launch autoscroll
font size
0
reset
how to read this tab
guitar tuner
×
Best way to learn
"El Enterrador"
Autoscroll
slow
fast
+/-
esc
set tempo
stop
*******************************EL ENTERRADOR**********************************************

Name: Mario A. Úsuga
-----------------------
Mario A. Úsuga 2000
marious18@
------------------------
'In my tabs I trust'
------------------------
(30/12/2000)
------------------------
*Importante!* Esta es mi interpretación de la
canción, no ha sido sacada de ningún libro ni revista 
especializada. Cualquier parecido con la canción,
(y lo digo en serio) es pura coincidencia.


Artista:      Gildardo Montoya
Título :      El Enterrador

This is a GREAT song, taken from the album 'El Parrandón del año vol 3'
 

Tuning:- Regular;


   Riff 1:
                  Fm             C                             Fm    
  e -------------------8---8---8-6-------------------6---6---6---
  B -----6-5-6-8--9--9---9---9-----------5-5-5-6-8-8---8---8---9-
  G -5-5---------------------------5-5---------------------------
  D -------------------------------------------------------------
  A -------------------------------------------------------------
  E -------------------------------------------------------------
                               C                             Fm
  e -----------------8---8---8-6-------------------6---6---6---
  B -----6-6-6-8-9-9---9---9-----------5-5-5-6-8-8---8---8---9-
  G -5-5---------------------------5-5-------------------------
  D -----------------------------------------------------------
  A -----------------------------------------------------------
  E -----------------------------------------------------------

                                            C                  Fm

  e ----13----13---------------4-4-4-4-4-3-4/6-6---6-6-6-6-6-4-6/8-
  B -13----13----13------------6-6-6-6-6-5-6/8-8---8-8-8-8-8-6-8/9-
  G ----------------13---------------------------------------------
  D -------------------15------------------------------------------
  A ---------------------------------------------------------------
  E ---------------------------------------------------------------


                                          Fm         Fin del Riff 1
  e -4-4-4-4-4-3-4/6-6----9-8-6---------------13-
  B -6-6-6-6-6-5-6/8------------9-8-5-8-5-6------
  G ---------------------------------------------
  D ---------------------------------------------
  A ---------------------------------------------
  E ---------------------------------------------


-----------------------------------------------------------------------------------------------


                    


                     Riff 1

                                  Fm
                 Como soy enterrador y barato cobro yo
                                  C
                 ayer me dijo Mariela
 
                 ay señor enterrador mi marido se murió 
                                            Fm
                 usted por cuanto me lo entierra

                 le dije yo se lo entierro
     
                 le dije yo se lo entierro
                                   C
                 y le cobro 2000 pesitos
 
                 y este tranquila Mariela

                 se lo entierro como quiera 
                                         Fm
                 y le hago un buen entierrito

     
                                        C   
                 se lo entierro por la noche
                                        Fm
                 se lo entierro por la tarde
                                         C
                 se lo entierro en la mañana
                                                Fm
                 y se lo entierro en cualquier parte


                                           C  
                 se lo entierro en Barranquilla
                                       Fm                                   
                 se lo entierro en Bogotá
                                        C  
                 se lo entierro en Marinilla
                                        Fm
                 o se lo entierro en Amagá

                                         
                                         C  
                 Yo se lo entierro en Ipiales
                                         Fm
                 o se lo entierro en Tuluá
                                        C  
                 se lo entierro en Manizales
                                        Fm
                 se lo entierro en Mutatá

                                       C  
                 se lo entierro en Cartago
                                        Fm
                 o se lo entierro en Pereira
                                         C  
                 se lo entierro en el Tolima
                                        Fm
                 o se lo entierro en Armenia
   


                 Riff 1

                                          C  
                 se lo entierro en Santa Marta
                                         Fm
                 se lo entierro en Cartagena
                                          C  
                 se lo entierro en el Chocó
                                         Fm
                 se lo entierro en Venezuela


                                           C  
                 si quiere lo entierro en Cali
                                         Fm
                 o se lo entierro en Palmira
                                        C  
                 lo entierro en Villavicencio
                                       Fm
                 o si quiere en la Guajira


                                          C  
                 yo se lo entierro en Fredonia
                                        Fm
                 se lo entierro en Jericó 
                                         C  
                 se lo entierro en Bolombolo
                                         Fm
                 se lo entierro en Yolombó


                                         C  
                 se lo entierro en el Retiro
                                       Fm
                 lo entierro en Titiribí
                                          C  
                 yo se lo entierro en rionegro 
                                       Fm
                 o yo se lo entierro aquí


                                          C 
                 se lo entierro en Santa Rosa
                                        Fm
                 se lo entierro en Yarumal
                                         C 
                 o se lo entierro en Barbosa
                                         Fm
                 se lo entierro en Guayabal

                             
                                     C 
                 en Cúcuta se lo entierro 
                                          Fm
                 se lo entierro en La Virginia
                                          C 
                 lo entierro en Anserma Viejo 
                                          Fm
                 o se lo entierro en Rio Sucio.


-------------------------------------------------------------------------------------------

                           ACORDES:


                               O TAMBIÉN:

         Fm      C                              Fm      C       
  E -----1-------0------                 E -----4-------3------
  B -----1-------1------                 B -----6-------5------
  G -----1-------0------                 G -----5-------5------ 
  D -----3-------2------                 D -----3-------5------
  A -----3-------3------                 A -----x-------3------
  E -----1-------3------                 E -----x-------x------


       INCLUSO:


          Fm        C        
  e ------8---------8-------               
  B ------9---------8-------               
  G ------10--------9-------            
  D ------10--------10------            
  A ------8---------10------              
  E ------x---------8-------               


  yo recomiendo que estos acordes se toquen alternados para darle  mayor dinamismo a la canción.
  espero que les haya gustado y la disfruten (sobretodo en los diciembres)

-----------------------------------------------------------------------------------------------  


 Handmade in Medellín 
 By Mario A. Úsuga C.
  marious18@
 All rights reserved.
 Copyright 2000 


  Si algo no les quedó claro,si les gustó, si no,si tienen alguna inquietud, pregunta,duda,

  corrección, aclaración,   comentario, o lo que se les ocurra escriban:
                                                                        marious18@


     ¡¡¡¡¡¡¡¡¡¡¡¡¡¡¡¡¡¡¡¡BUENO PUES QUE ES PA` QUE SE LO PARRANDEEN!!!!!!!!

************************************************************************************************
                                  FELIZ AÑO 2001
Suggest correction
Give kudos to tab author, rate the tab!
1 2 3 4 5
comments
print report bad tab
guest
You may want to rate the tab now too:
select rating
Wanna post a correction for this tab? Suggest correction