Oops, an error
Loading. Please wait.

No One Is Ever Going To Want Me Tab

3,745 views 21 this week
1 commentread comment
1 2 3 4 5
x 6
add to favorites
launch autoscroll
font size
0
reset
how to read this tab
guitar tuner
Autoscroll
slow
fast
+/-
esc
set tempo
stop
Help us to improve Ultimate-Guitar.com Take our survey!
×
Author
Difficulty
intermediate
   A5    F5    F    D5
e|--x-----x----x-----x--|
B|--x-----x----x-----x--|
G|--x-----x----2-----7--|
D|--7-----3----3-----7--|
A|--7-----3----3-----5--|
E|--5-----1----1-----x--|

A5  F5  F  D5

I'm armed to the teeth
like a fucking animal
I ruin everything
I get my bony hands on

F5  D5  A5

and here we go, now
over the bridge of sighs
we will get a cross like christ, crucified
it's like a birth but it is in reverse
never gets better, always gets worse

A5  F5  F  D5

I'll gnaw at anything
new england is mine, and
it owes me a living

F5  D5  A5

step one
step two
step three
step four, we fall through the floor
fall through the floor
fall through the floor

e|------------------------------------------------------------------|
B|-3-5-3h5-5-3-5-3h5-5-3-5-3h5-5-3-5-3h5-5--------------------------|
G|-----------------------------------------2-2h4-2-2h4-2-2h4-2-2-0--|
D|------------------------------------------------------------------|
A|------------------------------------------------------------------|
E|------------------------------------------------------------------|

e|------------------------------------------------------------------|
B|-3-5-3h5-5-3-5-3h5-5-3-5-3h5-5-3-5-3h5-5--------------------------|
G|-----------------------------------------2-2h4-5-5-4-4-2-2-0------|
D|------------------------------------------------------------------|
A|------------------------------------------------------------------|
E|------------------------------------------------------------------|

Am  F  Dm  Am 

I wanna feel like I feel when I'm asleep
I wanna feel I wanna feel I wanna feel...
Sway! Sway! Sway! Sway!
Suggest correction
comments
print report bad tab
1 comment total.
0 reply
angulorichie 10 Oct 09, 2014 07:31 PM

I play the acoustic bit like this.

e|------------------------------------------------------------------|
B|---5---5---5---5---5---5--5----5---5--- 5---- 5---- 5-------------|
G|-7--6/7--7--6/7--7--6/7--7--6/7-----------------------------------|
D|---------------------------------7--7/97--7/97--7/97--7/5---------|
A|------------------------------------------------------------------|
E|------------------------------------------------------------------|

e|--------------------------|
B|--------------------------|
G|-------5-5/44-4/22--2h0---|
D|-7-7/9--------------------|
A|--------------------------|
E|--------------------------|

Nailed the rest

guest
You may want to rate the tab now too:
select rating
Wanna post a correction for this tab? Suggest correction