Oops, an error
Loading. Please wait.

Emily chords

94 views 6 this week
no commentswrite comment
1 2 3 4 5
2 more votes to show rating
add to favorites
×
Save as Personal and add changes to this tab that will be seen only by you. Learn more ›
×
You can save this tab as Personal to edit and correct it or add notes. All changes will be seen only by you. Learn more »
launch autoscroll
font size
0
reset
transpose
0
reset
simplify chords
display chords
guitar tuner
edit
Autoscroll
slow
fast
+/-
esc
set tempo
stop
Author
Difficulty
Strumming
There is no strumming pattern for this song yet. and get +5 IQ
Gill Landry "Emily" Studio Version
Standard Tuning
No Capo


[Chords]

Bm/D  [xx0432]
F#7   [xx4320]
E7    [020100}
Gmaj7 [xx0002]
D     [xx0232]
G     [320022]
D7    [xx0212]
Am7   [x02010]
C6/G  [xx5555]


Am7 (progression)
e |--0--2--3--2------|
B |--1--1--1--1------|
G |--0--0--0--0------|
D |--2--2--2--2------|
A |------------------|
E |------------------|


[Verse 1]
Bm/D                 F#7 
At the alter of your body
E7               Gmaj7
I was down on my knees
Bm/D        F#7
Flashing in foreign tongues
E7          Gmaj7
To now dead melodies

[Chorus]
D               G
And I tried to exalt you
D               G
As you crucified me
D               G
Oh but I do not fault you
Bm/D F#7
Oh, Emily, wont you remember me

[Solo]
e |----2---2---0---0----|
B |---3---3---3---3-----|
G |--4---3---2---1------|
D |---------------------|
A |---------------------|
E |---------------------|

[Verse 2]
Bm/D          F#7
That winter’s eve,
           D
Whisperin’ love
           D7
Whistling star dust melodies 

C6/G

[Interlude]
e |--2--3--5--7---2--3--5--7----------|
B |--0--0--0--0---0--0--0--0----------|
G |--0--0--0--0---0--0--0--0----------|
D |-----------------------------------|
A |-----------------------------------|
E |-----------------------------------|

[Verse 3]
Am7               
The postcards, paintings, and white haunted trees
Am7
I feel you suddenly slowly in all that I see

[Interlude] 
e |--2--3--5--7---2--3--5--7----------|
B |--0--0--0--0---0--0--0--0----------|
G |--0--0--0--0---0--0--0--0----------|
D |-----------------------------------|
A |-----------------------------------|
E |-----------------------------------|

[Verse 4]
Am7
Dreams that we built on a telephone wire
Am7
Balancing, fumbling, tumbling trough our desire

[Interlude]
e |--2--3--5--7---2--3--5--7----------|
B |--0--0--0--0---0--0--0--0----------|
G |--0--0--0--0---0--0--0--0----------|
D |-----------------------------------|
A |-----------------------------------|
E |-----------------------------------|

[Bridge]
D                            Am7                     G
I know how one lies to one’s face that lies in one’s arms
D                          Am7                       G
Although I can’t have your embrace I recall all your charms

[Verse 5]
Am7
But if what’s right is wrong then I wonder about me
Am7
Am I naive in even believing through this madness of years

[Interlude]
e |--2--3--5--7---2--3--5--7----------|
B |--0--0--0--0---0--0--0--0----------|
G |--0--0--0--0---0--0--0--0----------|
D |-----------------------------------|
A |-----------------------------------|
E |-----------------------------------|

[Verse 6]
Am7
Sometimes for pain but always for pleasure
Am7
Maybe someday is as good as never when measured in tears

[Interlude]
e |--2--3--5--7---2--3--5--7----------|
B |--0--0--0--0---0--0--0--0----------|
G |--0--0--0--0---0--0--0--0----------|
D |-----------------------------------|
A |-----------------------------------|
E |-----------------------------------|

[Verse 7]
Bm/D                          F#7
But if the worlds should tear apart
E7                 Gmaj7
Your old fashioned heart
Bm/D F#7
Oh Emily, won’t you remember me

            
            
Suggest correction
Creating personal tab
Creating personal tab
You can edit any tab online and save it as your Personal.

You can edit, replace or remove any tab part or add personal notes – all changes will be seen only by you.

Personal tabs can be accessed anytime from any device, even offline.
Learn more »
Give kudos to tab author, rate the tab!
1 2 3 4 5
comments
print report bad tab
guest
You may want to rate the tab now too:
select rating
Wanna post a correction for this tab? Suggest correction