Oops, an error
Loading. Please wait.

Acony Bell tab

version 2
version 2

Whole song

  • This tab differs from the others in that it attemp... Show more
700 views 15 this week
no commentswrite comment
1 2 3 4 5
2 more votes to show rating
add to favorites
×
Save as Personal and add changes to this tab that will be seen only by you. Learn more ›
×
You can save this tab as Personal to edit and correct it or add notes. All changes will be seen only by you. Learn more »
launch autoscroll
font size
0
reset
how to read this tab
guitar tuner
edit
Autoscroll
slow
fast
+/-
esc
set tempo
stop
Author
Difficulty
About this tab version
This tab differs from the others in that it attempts to maintain a rhythm and bass throughout the entirety of the song. Was this info helpful? Yes No
-------------------------------------------------------------------------------
                             SONG NAME - Band Name
-------------------------------------------------------------------------------
Tabbed by: ramble-on
E-mail: IM my account

Standard tuning; Capo at 5th fret.
Some notes:
This is how I play this song, and it is an attempt to unify the multiple guitar parts 
into a single part that is
playable while singing, while still having a bass and melody. I didn't tab out the 
second solo, my brain has
grown weary of this song, any assistance would be greatly appreciated. The song is 
largely a repeating
progression of chord arpeggios, so I started with just the chords and lyrics. I 
recommend just learning to
strum the chords with the lyrics first. Once you have the pattern memorized, the picking 
will come much easier.
Please note that the chord names I use are the ACTUAL CHORD NAMES, refer to the chord 
chart if this confuses
you. If you find it simpler to use the "fake" chord names relative to your finger 
position in open position the
pattern is this: D D D A G D A D. Have Fun!

Chord Chart (Capo V)

      G    D    C
e|----2----0----3----|
B|----3----2----0----|
G|----2----2----0----|
D|----0----2----0----|
A|---------0----2----|
E|--------------3----|

Full Lyrics and Chords (Capo V):
            G                  G
The fairest bloom the mountain knows
          G              D
Is not an iris or a wild rose
               C                    G
But the little flower of which I'll tell
             D           G
Known as the brave acony bell

              G                   G
Just a simple flower so small and plain
              G                      D
With a pearly hue and a little known name
                     C                     G
But the yellow birds sing when they see it bloom
                   D                G
For they know that spring is coming soon

                  G                          G
Well it makes its home mid the rocks and the rills
                    G                D
Where the snow lie deep on the windy hills
                 C                   G
And it tells the world "why should i wait
             D                  G
This ice and snow is gonna melt away"

            C                       G
And so I'll sing that yellow bird's song
                 D                  G
For the troubled times will soon be gone

Intro:
e|-5p2-5p2-------2---2----|
B|---------3h7---3---3----|
G|---------------2---2----|
D|-------------0-------0--|
A|-----------------0------|
E|------------------------|

e|-2-----7p5-2h5-2-2---2----|
B|---5/7-----------3-3-3----|
G|-----------------2---2----|
D|---------------0-------0--|
A|-------------------0------|
E|--------------------------|


e|-5p2-5p2-0h2----2---2-----|
B|-------------3--3---3-----|
G|----------------2---2-----|
D|-------------0--------0---|
A|-----------------0--------|
E|--------------------------|

e|-5p2-5p2-0h2---2---0-2----|
B|-------------1-1------3---|
G|---------------2----------|
D|-------------0------------|
A|-----------------0--------|
E|--------------------------|

e|-5p2-5p2-0h2-2-----0-2----|
B|---------------0----------|
G|----------------0---------|
D|------------------0-------|
A|--------------------------|
E|-------------3------------|

e|-5p2-5p2-0h2---2----2-----|
B|---------------3----3---3-|
G|-------------2-2----2--2--|
D|-------------0---2h4------|
A|-----------------0--------|
E|--------------------------|

e|-5p2-5p2-0h2---------0h2-0----|
B|-------------------2-------2--|
G|-------------2p0h2------------|
D|-0----------------------------|
A|-----4---2---0-------------0--|
E|------------------------------|

e|-2-1-0------------------------|
B|-3-2-2-3----------------------|
G|-------2----------------------|
D|-------0-------------0--------|
A|-------------0-2-3-4----------|
E|---------2-3------------------| "The fairest...

Verse 1:
"..bloom.........knows.........iris.....wild....
e|--2--2--2--2----2--2--2--2----2--2--2--2------|
B|--3--3--3--3----3--3--3--3----3--3--3--3------|
G|--2--2--2--2----2--2--2--2----2--2--2--2------|
D|-0-----0-------0-----0-------0-----0----------|
A|----0-----0-------0-----0-------0-----0-------|
E|----------------------------------------------|

"..rose..........flower.......tell...........brave.........bell
e|--0--0--0--0----3--3--3--3----2--2--2--2----0--0--0--0----2--------|
B|--2--2--2--2----0--0--0--0----3--3--3--3----2--2--2--2----3-----3--|
G|--2--2--2--2----0--0--0--0----2--2--2--2----2--2--2--2----2----2---|
D|----2-----2-------0-----0---0------0----------2-----2----0--2h4----|
A|-0-----0------------------------0-----0----0-----0-----------------|
E|---------------3-----3---------------------------------------------|


Solo 1:
"........................................................Just a simple....
e|----2---------2-0-0----7-5--------------------2--2----------------------|
B|-----3-2-------2-2-2-2----6-7-3-0-------------3--3----------------------|
G|-2-2--------------------------------4----4----2--2----------------------|
D|---------5p4-5---------0-----------7-7--7-7--0-----0--------------------|
A|---------0------------------------5----0--------0-----------------------|
E|------------------------------------------------------------------------|


Verse 2:
"..flower........plain.........hue.........
e|--2--2--2--2----2--2--2--2----2--2--2--2------|
B|--3--3--3--3----3--3--3--3----3--3--3--3------|
G|--2--2--2--2----2--2--2--2----2--2--2--2------|
D|-0-----0-------0-----0-------0-----0----------|
A|----0-----0-------0-----0-------0-----0-------|
E|----------------------------------------------|


"..name..........sing.........bloom..........spring........soon
e|--0--0--0--0----3--3--3--3----2--2--2--2----0--0--0--0----2---------|
B|--2--2--2--2----0--0--0--0----3--3--3--3----2--2--2--2----3-----3---|
G|--2--2--2--2----0--0--0--0----2--2--2--2----2--2--2--2----2----2----|
D|----2-----2-------0-----0---0------0----------2-----2----0--2h4-----|
A|-0-----0------------------------0-----0----0-----0------------------|
E|---------------3-----3----------------------------------------------|


[SOLO 2]                                        "Well it makes it's...

Verse 3:
"..home..........rills.........deep.....windy....
e|--2--2--2--2----2--2--2--2----2--2--2--2------|
B|--3--3--3--3----3--3--3--3----3--3--3--3------|
G|--2--2--2--2----2--2--2--2----2--2--2--2------|
D|-0-----0-------0-----0-------0-----0----------|
A|----0-----0-------0-----0-------0-----0-------|
E|----------------------------------------------|


"..hill..........world........wait...........snow..........away....and so...
e|--0--0--0--0----3--3--3--3----2--2--2--2----0--0--0--0----2--2--2--2---|
B|--2--2--2--2----0--0--0--0----3--3--3--3----2--2--2--2----3--3--3--3---|
G|--2--2--2--2----0--0--0--0----2--2--2--2----2--2--2--2----2--2--2--2---|
D|----2-----2-------0-----0---0------0----------2-----2----0-----0-------|
A|-0-----0------------------------0-----0----0-----0----------0-----0----|
E|---------------3-----3-------------------------------------------------|


"..sing..........song..........times........will soon be gone"
e|--3--3--3--3----2--2--2--2----0--0------------------------------|
B|--0--0--0--0----3--3--3--3----2--2------------------------------|
G|--0--0--0--0----2--2--2--2----2--2------------------------------|
D|----0-----0----0-----0----------2-------------------------------|
A|------------------0-----0----0-----0----------------------------|
E|-3-----3--------------------------------------------------------|


e|-5p2-5p2-------2---2----|
B|---------3h7---3---3----|
G|---------------2---2----|
D|-------------0-------0--|
A|-----------------0------|
E|------------------------|

e|-2-----7p5-2h5-2-2---2----|
B|---5/7-----------3-3-3----|
G|-----------------2---2----|
D|---------------0-------0--|
A|-------------------0------|
E|--------------------------|


e|-5p2-5p2-0h2----2---2-----|
B|-------------3--3---3-----|
G|----------------2---2-----|
D|-------------0--------0---|
A|-----------------0--------|
E|--------------------------|

e|-5p2-5p2-0h2---2---0-2----|
B|-------------1-1------3---|
G|---------------2----------|
D|-------------0------------|
A|-----------------0--------|
E|--------------------------|

e|-5p2-5p2-0h2-2-----0-2----|
B|---------------0----------|
G|----------------0---------|
D|------------------0-------|
A|--------------------------|
E|-------------3------------|


e|-5p2-5p2-0h2---2----2-----|
B|---------------3----3---3-|
G|-------------2-2----2--2--|
D|-------------0---2h4------|
A|-----------------0--------|
E|--------------------------|

e|-5p2-5p2-0h2---------0h2-0----|
B|-------------------2-------2--|
G|-------------2p0h2------------|
D|-0----------------------------|
A|-----4---2---0-------------0--|
E|------------------------------|

e|-2-1-0-----------------------|
B|-3-2-2-3---------------------|
G|-------2--2-0-0-7------------|
D|-------0--2-0-3-7------------|
A|----------0-2-4-5------------|
E|-----------------------------|

************************************

| /   slide up
| \   slide down
| h   hammer-on
| p   pull-off
| ~   vibrato
| +   harmonic
| x   Mute note
| b   Bend
| pb  Pre-bend
| br  Bend release
| pbr Pre-bend release
| brb Bend release bend

************************************

            
            
Suggest correction
Creating personal tab
Creating personal tab
You can edit any tab online and save it as your Personal.

You can edit, replace or remove any tab part or add personal notes – all changes will be seen only by you.

Personal tabs can be accessed anytime from any device, even offline.
Learn more »
Give kudos to tab author, rate the tab!
1 2 3 4 5
comments
print report bad tab
guest
You may want to rate the tab now too:
select rating
Wanna post a correction for this tab? Suggest correction