Oops, an error
Loading. Please wait.

Down Along The Dixie Line Tab

1,973 views 3 this week
no commentswrite comment
1 2 3 4 5
please rate
add to favorites
launch autoscroll
font size
0
reset
how to read this tab
guitar tuner
Tab Pro tools
  • play this tab
  • loop segment
  • change instrument
  • show fretboard
  • metronome
×
Best way to learn
"Down Along The Dixie Line"
Autoscroll
slow
fast
+/-
esc
set tempo
stop
Contributor
Capo
2nd fret
Down Along the Dixie Line ~ Gillian Welch
from the album "The Harrow & the Harvest"

Here's a stab at Dave Rawlings' lead work (as heard on the album):

Capo II

Intro:
E|-------------------------------------------|
B|---------------3---------------------------|
G|---------0-2/4-----1/2-0-0-2-2/4---4\2-0---|
D|-----0-----------------------------------0-|
A|-1/2---------------------------------------|
e|-------------------------------------------|

E|-------------------------------------------|
B|-----------------3-------------------------|
G|-------0---0-2/4---4---4\2-0-2---0-2-0---7-|
D|-----0-------------------------2-----------|
A|-1/2---------------------------------------|
e|-------------------------------------------|

E|-------------------------------------------|
B|-------------------------------------------|
G|-7/9-7/9---\4-4-4-4p2-0---------0---0-2-0--|
D|--------------------------0h1h2------------|
A|-------------------------------------------|
e|-------------------------------------------|

E|---------------------------|
B|-1/3\1-1-0-0-1-0-----------|
G|-2/4\2-2-0-0-2-0---0-------|
D|---------------------2-0---|
A|-------------------------2-|
e|---------------------------|

Solo:
E|---------------------------3-3-5p3-5/7---3---------------------------|
B|-----3-----3h5p3h5p3---(5)-----------------3-------------------------|
G|-2/4-----------------------------------------4\2p0---0h2-0-----0-----|
D|-------5---------------------------------------------------2/5---0---|
A|-------------------------------------------------------------------2-|
e|---------------------------------------------------------------------|

E|-----------------------------------------------------|
B|-------------------------1p0-1p0---------3-5p3-------|
G|-----------0-------0-2p0---------2---4-5-------4-----|
D|-----0-0h2-----0-2---------------------------------5-|
A|-2/3-------------------------------------------------|
e|-----------------------------------------------------|

E|-------------------------------------|
B|---------------------3-------3-------|
G|-2/4-2/4-4-4p0-0-0-4---4-0-4---4-----|
D|---------------------------------5-5-|
A|-------------------------------------|
e|-------------------------------------|

E|-------------------------------------------7-10-7---|
B|---------------------------------7-8-7-5-7--------8-|
G|---------------------------4-5-6-6------------------|
D|-----0-0h2-0-2-0h3-0-3-0-5--------------------------|
A|-0h2------------------------------------------------|
e|----------------------------------------------------|

Outro:
E|----------------------------3-3-3-|
B|----------------------------0-1-0-|
G|----------------------------0-0-0-|
D|-----0---0-2----------------0-0-0-|
A|-0h2---3--------------------2-2-2-|
e|----------------------------3-3-3-|
comments
We did not receive enough feedback on this tab! Please rate:
print report bad tab
1 2 3 4 5
I want to post or [tab]
guest
You may want to rate the tab now too:
select rating
Please do not post tabs as comments. Select "correction" instead!