Oops, an error
Loading. Please wait.

Hey Jealousy Bass

version 1
version 1

Whole song

Interactive

31,401 views 51 this week
no commentswrite comment
1 2 3 4 5
x 11
add to favorites
launch autoscroll
font size
0
reset
guitar tuner
backing track
0:00
0:00
×
Best way to learn
"Hey Jealousy"
Autoscroll
slow
fast
+/-
esc
set tempo
stop
Author
Difficulty
Tuning
intermediate
E A D G
artist: gin blossoms
song: hey jealousy
transcribed by: mgruspe@peoplesupport.com
                kramy_xxiii@yshoo.com

intro:

99% accurate&sure bout this.just listen to the record for the proper timing.
please rate it afterwards. thnx...

    h p  
G|-------------------------------------|
D|-9/11\9-0----------------------------|
A|----------55-5555/777-77/99-999\777--|
E|-------------------------------------|

   h p  
G|-------------------------------------|
D|-9/11\9-0----------------------------|
A|----------55-5555/777-77/99-999\777--|
E|-------------------------------------|

   h p  
G|-------------------------------------|
D|-9/11\9-0----------------------------|
A|----------55-5555/777-77/99-999\777--|
E|-------------------------------------|

verse:

G|---------------------------------|
D|---------------------------------|
A|-5-55-5/77-7/9-99\7-77-----------|
E|---------------------------------|

G|---------------------------------|
D|---------------------------------|
A|-5555-7-777/999-9\7-777----------|
E|---------------------------------|

chorus:                              

G|-------------------------------------------------------|
D|-9/11\9-0------7-----------------7---------------------|
A|-------------9---9-54-45577----9---9-54-55/7/99-9775-5-|
E|----------55----------------55-------------------------|
.......................................................hey jealousy

G|---------------------------------|
D|---------------------------------|
A|-55-55777-7799-99777-9790--------|
E|---------------------------------|

G|---------------------------------|
D|---------------------------------|
A|-55-55777-7799-99777-7\----------|
E|---------------------------------|

verse2:

G|---------------------------------|
D|---------------------------------|
A|-5-55-5/77-7/9-99\7-77-----------|
E|---------------------------------|

G|---------------------------------|
D|---------------------------------|
A|-5555-7-777/999-9\7-777----------|
E|---------------------------------|
 

G|-------------------------------------------------------|
D|-9/11\9-0------7-----------------7---------------------|
A|-------------9---9-54-45577----9---9-54-55/7/99-9775-5-|
E|----------55----------------55-------------------------|
...............................................hey jealousy

adlib:

G|-------------------------------------------------------------------|
D|----------------------------------------------------------9/11\9-0-|
A|-55555/77-777/99-999\7779797-55-5555/77-7777-99-99\7777------------|
E|-------------------------------------------------------------------|
                                                        tomorrow we could...
G|-------------------------------------------------------|
D|-9/11\9-0------7-----------------7---------------------|
A|-------------9---9-54-45577----9---9-54-55/7/99-9775-5-|
E|----------55----------------55-------------------------|
...............................................hey jealousy

G|---------------------------------|
D|---------------------------------|
A|-55-55777-7799-99777-9790--------|
E|---------------------------------|
                           hey jealousyyy

G|--------------------------------------------|
D|--------------------------------------------|
A|-55-5557-7777/99-9999\777-979\-55-5/7777-5--|
E|--------------------------------------------|
............she took my heart

   h p    r~~~~~~~~~~~~  s
G|------------------------------|
D|-9/11\9-0---------------------|
A|-----------------------5\-----|
E|------------------------------|

thats it!

*please dont copy and post this tab as yours. have some respect*
if u have comments or suggestions just email me mgruspe@peoplesupport.com

*wag nio pong kopyahin tpos i-post it0ng tab n i2 n kunwari kyo ang gumawa*
if u have comments or suggestions just email me mgruspe@peoplesupport.com

add me on your friendster- kramy_xxiii@yahoo.com =p


love you so much bhabe c0h!
Suggest correction
comments
print report bad tab
guest
You may want to rate the tab now too:
select rating
Wanna post a correction for this tab? Suggest correction