Oops, an error
Loading. Please wait.

El Toro Y La Luna Tab

576 views 9 this week
no commentswrite comment
1 2 3 4 5
3 more votes to show rating
add to favorites
launch autoscroll
font size
0
reset
how to read this tab
guitar tuner
Autoscroll
slow
fast
+/-
esc
set tempo
stop
Help us to improve Ultimate-Guitar.com Take our survey!
×

           La luna se esta peinando
-------2---------/------5--7--5--------
------0----------/-----5-------5------
-----0-----------/----5---------5-----
----0------------/---------------7---
---2-------------/------------------
--0--------------/--5----------------


    En los espejos del río       

---3---------------/------0---------------
--4----------------/-----3-3--------------
-5-----------------/----0---0-------------
-------------------/---2-----2------------
-------------------/--2-------2-----------
-------------------/-0---------0----------

                                                  entre la
Y un toro la esta mirando                      jara escondido

                /----5---5---5---5-------------/-------------7---10----12-
                /---5---5---5---5-------8---7--/------------8-------------
                /--5---5---5---5--------9---8--/-----------9--------------
                /-7---6---5---4----2----8---7--/----------9---------------
                /------------------------------/--------------------------
                /------------------------------/--------------------------

                         Am     D7                         G
Cuando llega la alegre mañana,     Y la luna se escapa del río 
       Am                                                     B7
Y el torito se mete en el agua envistiendole haber kien se ha ido
                           E                                  B7
Y ese toro enamorado de la luna, ke abandona por la noche la manada
                                                              E
y es pintado de amapola y aceituna y le puso campanero el mayoral

Los romeros de los montes le besan la frente, 
E7                                    A
Las estrellas y luceros lo bañan de plata, 
        Am                                 E
Y el  torito ke es bravío y de casta valiente,
              B7                  E
abanico de colores parecen sus patas.

Ultimos dos tokes finales: B7   E


Esta rola va dedicada a todos los guitarristas... ke es obvio ke aman la buena música..
Espero ke les guste y les sirva principalmente..
Dudas o comentarios...o si kieren otra canción...aki esta mi mail...
meme_mana@
Suggest correction
Give kudos to tab author, rate the tab!
1 2 3 4 5
comments
print report bad tab
guest
You may want to rate the tab now too:
select rating
Wanna post a correction for this tab? Suggest correction