Oops, an error
Loading. Please wait.

Hoy Chords

179 views 1 this week
no commentswrite comment
1 2 3 4 5
3 more votes to show rating
add to favorites
launch autoscroll
font size
0
reset
transpose
0
reset
simplify chords
display chords
guitar tuner
×
Best way to learn
"Hoy"
Autoscroll
slow
fast
+/-
esc
set tempo
stop
Capo
2nd fret
(Capo on 2nd fret)

(Lyrics are uncertain)


F#m
------------------------------------------------------------
-------0---------------------------------------------------
(0)--------0----------------------------------------0-----
(2)------------4-h-5-p-4--2----------0--h--2------4-
(2)-------------------------------2--3--------------------
(0)--------------------------------------------------------- 

E
-----------------------------------------------------------------------
-----------------------------------------------------------------------
-----2-----------------------------------------------------------------
4--------4---2--h--4--p--2---0--------------------2--h--4--p--2-
--------------------------------------0--2--3-------------------------
------------------------------------------------------------------------ 

D                                                                                                         B7
--------------------------------------------------------------------------------------------------------
------------------------------------------------------------------------------------0-h-1-p-0-----0-
---------------------------------------------------------------------------2--2-----------------2-----
2--2--2---0--h--2--0--------------------0--0--0--h--2--------------------------------------------
-----------------------------3-----2---3-----------------------3--2----------------------------------
-------------------------------------------------------------------------------------------------------

(repeat) 

11--11--11--11--11--11--11--11--12--12-
10--10--10--10--10--10--10--10--10--10-
11--11--11--11--11--11--11--11--11--11-
12--12--12--12--12--12--12--12--12--12-
10--10--10--10--10--10--10--10--10--10-
------------------------------------------------- 

(repeat 4 times) 

F#m
Ayúdale de la movida 

E
Ayúdale con todo con

D
A A gitana E amiga 

C#7
A A gitana E amor. 

                                    F#m
Ay querida aquí tenés una nena

                                   E
Aquí tenés una gran familia 

                                          D
Que es en mi alma me siento muy bien 

                                  C#7
A mitza en u nom de mi 

(Coro:)

F#m
Oy venga aquí venga ya 

                 E
Tú e' bonita 


Oy venga aquí venga ya 

                 D
Tú e' bonita 


Oy venga aquí venga ya 

                C#7
Tú e' bonita.


CHORDS:

F#m:   244222 / x 9 11 11 10 9
E:   x22454 / 776x5x / 4x245x / x79997
D:   554232 / 10 12 12 11 10 10 / x57775
C#7:   x43424 / 9 11 9 10 9 9 / x46464

Additional lyrics:

Ahora, ahora 
Mira esta gitana 
Mira como baila 
Mira se tiene gracia 
A carmena maya 
De su forma de vivir 
De su pronto yo sentir 
Mira la gitana 
A carmena maya 
Mira la gitana 

(coro) 

Ella sí me quiere
O si no me deja en paz 
Dime si es tú me quieres 
Que yo voy y deseo.
Suggest correction
Give kudos to tab author, rate the tab!
1 2 3 4 5
comments
print report bad tab
guest
You may want to rate the tab now too:
select rating
Wanna post a correction for this tab? Suggest correction