Oops, an error
Loading. Please wait.

Noches De Barcelona Chords

145 views 1 this week
no commentswrite comment
1 2 3 4 5
3 more votes to show rating
add to favorites
launch autoscroll
font size
0
reset
transpose
0
reset
display chords
guitar tuner
Autoscroll
slow
fast
+/-
esc
set tempo
stop
Help us to improve Ultimate-Guitar.com Take our survey!
×
Barcelona Nights - Gipsy Kings


E---8--------7-8-7--7---------7--------8--------7-8-7--7---|
B-----10---10-----10-8----8-10--10-8----10----10-----10----|
G----------------------------------------------------------|
D----------------------------------------------------------| (repetir 3x)
A----------------------------------------------------------|
E----------------------------------------------------------|

E---10-8-7-8--|
B-------------|
G-------------|
D-------------|
A-------------|
E-------------|

E---8--------7-8-7--7---------7--------8---------7--8--7-----|
B-----10---10-----10-8----8-10--10-8----10----10---------10--|
G------------------------------------------------------------|
D------------------------------------------------------------|
A------------------------------------------------------------|
E------------------------------------------------------------|

E---10-8-7-----------7-|
B----------10-8--8-10--|
G----------------------|
E----------------------|
A----------------------|
E----------------------|

E---8--------7-8-7--7---------7--------8--------7-8-7--7---|
B-----10---10-----10-8----8-10--10-8----10----10-----10----|
G----------------------------------------------------------|  (repetir 2x)
D----------------------------------------------------------|
A----------------------------------------------------------|
E----------------------------------------------------------|

E--------------------------------------------|
B--------------------------------------------|
G---7-9-10--9-7------------9-10-12-10-9-7-9--|
D--------------10-9-10-----------------------|
A--------------------------------------------|
E--------------------------------------------|

E-------------------------10-8-7-8---8-7-|
B---10-12-13--12-10-12-13----------------|
G----------------------------------------|
D----------------------------------------|
A----------------------------------------|
E----------------------------------------|
Suggest correction
Give kudos to tab author, rate the tab!
1 2 3 4 5
comments
print report bad tab
guest
You may want to rate the tab now too:
select rating
Wanna post a correction for this tab? Suggest correction