Oops, an error
Loading. Please wait.

Their Cell tab

version 1
version 1

Whole song

8,161 views 3 this week
3 commentsread comments
1 2 3 4 5
x 8
add to favorites
×
Save as Personal and add changes to this tab that will be seen only by you. Learn more ›
×
You can save this tab as Personal to edit and correct it or add notes. All changes will be seen only by you. Learn more »
launch autoscroll
font size
0
reset
how to read this tab
guitar tuner
edit
Autoscroll
slow
fast
+/-
esc
set tempo
stop
Author
Difficulty
Song: Their Cell
Artist: Girl in a Coma
Album: Both Before I'm Gone

Standard Tuning
Played with slight overdrive

Intro:

e--------9-----9-9-----------9-----9-9----|
B--10-12---10-9-9---10-12-10---10-9-9-----|
G-----------------------------------------|
D-----------------------------------------|
A-----------------------------------------|
E-----------------------------------------|

e--------7-7/9--7------------7-7/9--7------------|
B---7-10----------10-7--6-10----------10-7-7/10--|(hold)
G------------------------------------------------|
D------------------------------------------------|
A------------------------------------------------|
E------------------------------------------------|


Main Riff:

e---5-------4-------2-------7-------------------------------------|
B---5-------4-------2-------7-------------------------------------|
G---6-------5-------2-------8-------------------------------------|
D---7-------6-------4-------9-------------------------------------|
A---7-------6-------4-------9-------------------------------------|
E---5-------4-------2-------7-------------------------------------|

   each bar chord is played 16 times before changing to the next

That is the riff for the majority of the song.
Email me @ juliandrum@gmail.com if you have any problems.

            
            
Suggest correction
Creating personal tab
Creating personal tab
You can edit any tab online and save it as your Personal.

You can edit, replace or remove any tab part or add personal notes – all changes will be seen only by you.

Personal tabs can be accessed anytime from any device, even offline.
Learn more »
comments
print report bad tab
3 comments total.
0 reply
Exiled Destiny 10 Jun 22, 2009 04:17 PM

this tab looks great!...since is the only tab of this song...

+1 reply
OddballTECH 216 Aug 20, 2009 08:34 AM

The first chord is correct, but I believe they use these for the other 3:

-----------------------------------|
-6--7--9---------------------------|
-6--7--9---------------------------|
-6--7--9---------------------------|
-4--5--7---------------------------|
-----------------------------------|

try it out, it sounds just like the song

0 reply
changobilly22 52 Oct 04, 2010 01:19 PM

its essentially the same notes but i play it like this

----7-9------9--9----7-9------9--9-|
-10-----10-9--9---10-----10-9--9---|
-----------------------------------|

-------7-7/9--7--------------7-7/9--7-----------|
---7-10----------10-7-----10----------10-7-7/10-|
-----------------------10-----------------------|

guest
You may want to rate the tab now too:
select rating
Wanna post a correction for this tab? Suggest correction