Oops, an error
Loading. Please wait.

Their Cell tab

version 2
version 2

Whole song

3,601 views 1 this week
1 commentread comment
1 2 3 4 5
x 3
add to favorites
×
Save as Personal and add changes to this tab that will be seen only by you. Learn more ›
×
You can save this tab as Personal to edit and correct it or add notes. All changes will be seen only by you. Learn more »
launch autoscroll
font size
0
reset
how to read this tab
guitar tuner
edit
Autoscroll
slow
fast
+/-
esc
set tempo
stop
Author
Girl In A Coma
"Their Cell"

------------------------------|
-----12--14-------14----14----|(x2)
--14--------14--13----13------|
------------------------------|
------------------------------|
------------------------------|


-----------------------------------------------------------|
---------12-12/14--12--10--------10-12-12/14-12-10----10---|
--11--14------------------11--10-------------------11------|
-----------------------------------------------------------|
-----------------------------------------------------------|
-----------------------------------------------------------|


---9-------------------------|
--10------------11-----------|
---9-----10-----11-----13----|
--11-----11-----11-----14----|
--12-----11------9-----14----|
----------9------------12----|


--5--------------------------|
--5-------6------7-----9-----|
--6-------6------7-----9-----|
--7-------6------7-----9-----|
--7-------4------5-----7-----|
--5--------------------------|


--4-------4------4-----4-----|
--4-------6------5-----4-----|
--5-------6------6-----5-----|
--6-------6------6-----6-----|
--6-------4------4-----6-----|
--4--------------------4-----|
Suggest correction
Creating personal tab
Creating personal tab
You can edit any tab online and save it as your Personal.

You can edit, replace or remove any tab part or add personal notes – all changes will be seen only by you.

Personal tabs can be accessed anytime from any device, even offline.
Learn more »
Give kudos to tab author, rate the tab!
1 2 3 4 5
comments
print report bad tab
1 comment total.
0 reply
Shwax 256 Feb 08, 2015 01:51 PM

Nailed it. But I find it's a little easier to play the second part of the intro like this:

|----------------------------------------------------|
|-----10-12-12/14-12-10--------10-12-12/14-12-10-----|
|--11-------------------11--10-------------------11--|
|----------------------------------------------------|
|----------------------------------------------------|
|----------------------------------------------------|

That is the 10th fret on the B string instead of the 14th fret on the G string.

guest
You may want to rate the tab now too:
select rating
Wanna post a correction for this tab? Suggest correction