Oops, an error
Loading. Please wait.

I Like That You Can See It tab

version 2
version 2

Whole song

  • More accurate and formatted slightly better.
688 views 3 this week
2 commentsread comments
1 2 3 4 5
2 more votes to show rating
add to favorites
×
Save as Personal and add changes to this tab that will be seen only by you. Learn more ›
×
You can save this tab as Personal to edit and correct it or add notes. All changes will be seen only by you. Learn more »
launch autoscroll
font size
0
reset
how to read this tab
guitar tuner
edit
Autoscroll
slow
fast
+/-
esc
set tempo
stop
Author
Difficulty
About this tab version
More accurate and formatted slightly better. Was this info helpful? Yes No
-----------------------------------------------------------------
I Like That You Can See It – Girlpool
-----------------------------------------------------------------
Tabbed by: oddysee3030
Email: oddysee3030@gmail.com

Tuning: Standard

----------------------------------UPDATE-----------------------------------
I adjusted the notes because they were a bit off. The open E notes were 
originally 7th and 9th fretted notes on the A string, which was wrong. 
This understanding ended up changing a lot about the tab as I had to 
rearrange/edit/reformat pretty much everything.

         Big thanks to moon1uhlexi for pointing out my mistakes!

---------------------------------------------------------------------------


Source videos: 

  https://youtu.be/5_-HL3rzMAA?t=16m4s  <--(Tab based entirely off this version)

  https://www.youtube.com/watch?v=kvGlEY75BRY  <--(Used to confirm some fingering)

If you're having trouble figuring out how to maneuver from note to note, I suggest
you watch the videos above to see how she does it, it's pretty easy to learn.

It’s pretty much the same two riffs all the way through, but
the amounts get a little different towards the end. 

**If you want to play the album version, it is exactly the same as this 
but has a lot less variation between the two riffs and is a lot simpler 
to play so just listen to the album version and note when the riffs change**

                                Intro:
e|-----------------------------------------------------------------|
B|-----------------------------7-----------------------------------|
G|--------------------------------7-6------------------------------|x2
D|------7------------------5----------7----------------------------|
A|-7\9------9---9---9--5\7-----------------------------------------|
E|--------0---0---0----------0-------------------------------------|

                              1st verse:
e|-----------------------------------------------------------------|
B|-----------------------------------------------------------------|
G|-----------------------------------------------------------------|x2
D|-----7------------------5----------------------------------------|
A|-7\9-----9---9---9--5\7-----7---7---7----------------------------|
E|-------0---0---0----------0---0---0------------------------------|

                          In between verses:
e|-----------------------------------------------------------------|
B|-----------------------------7-----------------------------------|
G|--------------------------------7-6------------------------------|x2
D|------7------------------5----------7----------------------------|
A|-7\9------9---9---9--5\7-----------------------------------------|
E|--------0---0---0----------0-------------------------------------|

                              2nd verse:
e|-----------------------------------------------------------------|
B|-----------------------------------------------------------------|
G|-----------------------------------------------------------------|x2
D|-----7------------------5----------------------------------------|
A|-7\9-----9---9---9--5\7-----7---7---7----------------------------|
E|-------0---0---0----------0---0---0------------------------------|

                          In between verses:
e|-----------------------------------------------------------------|
B|-----------------------------7-----------------------------------|
G|--------------------------------7-6------------------------------|x2
D|------7------------------5----------7----------------------------|
A|-7\9------9---9---9--5\7-----------------------------------------|
E|--------0---0---0----------0-------------------------------------|

                      3rd verse(and a bit after):
e|-----------------------------------------------------------------|
B|-----------------------------------------------------------------|
G|-----------------------------------------------------------------|x5
D|-----7------------------5----------------------------------------|
A|-7\9-----9---9---9--5\7-----7---7---7----------------------------|
E|-------0---0---0----------0---0---0------------------------------|

                     In between verses(only once):
e|-----------------------------------------------------------------|
B|-----------------------------7-----------------------------------|
G|--------------------------------7-6------------------------------|x1
D|------7------------------5----------7----------------------------|
A|-7\9------9---9---9--5\7-----------------------------------------|
E|--------0---0---0----------0-------------------------------------|

                             4th verse:
e|-----------------------------------------------------------------|
B|-----------------------------------------------------------------|
G|-----------------------------------------------------------------|x4
D|-----7------------------5----------------------------------------|
A|-7\9-----9---9---9--5\7-----7---7---7----------------------------|
E|-------0---0---0----------0---0---0------------------------------|

                              Outro:
e|-----------------------------------------------------------------|
B|-----------------------------------------------------------------|
G|-----------------------------------------------------------------|x1
D|-----7-----------------------------------------------------------|
A|-7\9-------------------------------------------------------------|
E|-----------------------------------------------------------------|


Feel free to let me know if anything’s wrong.

| /  slide up
| \  slide down
| h  hammer-on
| p  pull-off
| ~  vibrato
| +  harmonic
| x  Mute note


            
            
Suggest correction
Creating personal tab
Creating personal tab
You can edit any tab online and save it as your Personal.

You can edit, replace or remove any tab part or add personal notes – all changes will be seen only by you.

Personal tabs can be accessed anytime from any device, even offline.
Learn more »
Give kudos to tab author, rate the tab!
1 2 3 4 5
comments
print report bad tab
2 comments total.
-1 reply
moon1uhlexi 10 Nov 14, 2016 12:05 PM

great! I think instead of alternating between 9 on the A string and 7 on the D string though she alternates between 9 on the A string and 0 on the lowest E string. Everything else is perfect.

guest
You may want to rate the tab now too:
select rating
Wanna post a correction for this tab? Suggest correction