Oops, an error
Loading. Please wait.

Jamie Marie Tab

8,644 views 30 this week
no commentswrite comment
1 2 3 4 5
excellent!
x 9
add to favorites
launch autoscroll
font size
0
reset
how to read this tab
guitar tuner
Autoscroll
slow
fast
+/-
esc
set tempo
stop
Help us to improve Ultimate-Guitar.com Take our survey!
×
Author
Difficulty
Capo
novice
4th fret
Girls - Jamie Marie

Standard Tuning
Capo on 4


Chords relative to capo

Many thanks to JKuehne for his tab which this is derived from.



Intro:
e----------------0---------------------0----|
B---1-1-1/3-1-0-0-0---1-----1-----------0---|
G--0-0------0-0----0--2-2-2-2h4-2--0--0--0--|
D-------------------2-3-3-3-3---3--2-2----2-|
A-3-----------------------------------------|
E-------0-----0-------1-----1---1--0--------|


e------------------0-------1---------3-5p3-----3-----|-3-|
B-----------------0-0-------1-------3------3h5---5p3-|-3-|
G---2-2-2-2h4-2--0---0---2---2-2/--4-----------------|-4-|
D---3-3-3-3---3--2------3------3/-5------------------|-3-|
A----------------------------------------------------|-5-|
E-0h1-----1---1--0---0-1-------1/3-------------------|-3-|

Verses:
Much of the verses and choruses are arpeggiated loosely, so just listen to the track and 
use these chords to get the feel.

C                 Em
   Maybe I didn't realize
    F              G
the way I loved the way you moved,
      C          Em
Til I moved      so far away
F               G
 I couldn't see you anymore.


C                      Em
   And maybe all those secret times

F               G           C    Em
didn't seem so bad until I knew

        F
all of my little secrets

                 G
weren't all that secret anymore

E---3-4-5-


Chorus:
Am               Em
Maybe it's all right,
           F                         C
I mean, I went and found the modern world,
  F                     G
but I miss the way life was
                 C    (Intro)
when you were my girl


Verses:
C                Em
I know I never noticed then
 F                 G
just what it was I had
                    C     Em
up until I lost you,
                    F
and man, did I lose you
               G
ain't that the way it always goes?


C                         Em
And I know you are gonna be just fine,
              F
you know they say it's better
    G                         C     Em
to have loved and to lose it,
                   F
than to never ever know it,
              G
Easy come and easy go, whatever

E---3-4-5-


Chorus:
Am               Em
Maybe it's all right,
           F                         C
I mean, I went and found the modern world,
  F                     G
but I miss the way life was
                     C  (rpt intro)
when you were my girl



Organ outro plays over verse chords, then moves to chorus chords.
Suggest correction
comments
print report bad tab
guest
You may want to rate the tab now too:
select rating
Please do not post tabs as comments. Select "correction" instead!