Oops, an error
Loading. Please wait.

Just A Song Tab

version 1
version 1

Whole song

Interactive

5,193 views 15 this week
no commentswrite comment
1 2 3 4 5
excellent!
x 4
add to favorites
launch autoscroll
font size
0
reset
how to read this tab
guitar tuner
Autoscroll
slow
fast
+/-
esc
set tempo
stop
Help us to improve Ultimate-Guitar.com Take our survey!
×
Author
Difficulty
intermediate
-------------------------------------------------------------------------------
                             Just a Song - Girls
-------------------------------------------------------------------------------

Tuning: Standard Tuning (eBGDAE)

Hello everyone! So I decided to tab this song after watching youtube videos of it live, 
so here! It is accurate, but I wasn't able to tab the arpeggios specifically, so you'll 
have to improvise on those parts like I do. It shouldn't be too hard. Well I hope you enjoy!!!

Intro:
  (arpeggios)                                           (arpeggios)
e|7-----------9--11--9--7~------------------------------7-----------9--11--9-|
B|7-----------9--11--9--7~------------------------------7-----------9--11--9-|
G|8-----------9--11--9--8~------------------------------8-----------9--11--9-|
D|9---------------------9~------------------------------9--------------------|
A|9---------------------9~------------------------------9--------------------|
E|7---------------------7~------------------------------7--------------------|

     (arpeggios for these four chords below, listen to song for pattern)
e|7~-7----------4-----------2----------0-------------------------------------|
B|7~-7----------4-----------2----------0-------------------------------------|
G|8~-8----------4-----------3----------1-------------------------------------|
D|9~-9----------6-----------4----------2-------------------------------------|
A|9~-9----------6-----------4----------2-------------------------------------|
E|7~-7----------4-----------2----------0-------------------------------------|

  (arpeggios)                                           (arpeggios)
e|7-----------9--11--9--7~------------------------------7-----------9--11--9-|
B|7-----------9--11--9--7~------------------------------7-----------9--11--9-|
G|8-----------9--11--9--8~------------------------------8-----------9--11--9-|
D|9---------------------9~------------------------------9--------------------|
A|9---------------------9~------------------------------9--------------------|
E|7---------------------7~------------------------------7--------------------|

     (arpeggios for these four chords below, and then final stroke of E chord)
e|7~-7----------4-----------2----------0--------------0~---------------------|
B|7~-7----------4-----------2----------0--------------0~---------------------|
G|8~-8----------4-----------3----------1--------------1~---------------------|
D|9~-9----------6-----------4----------2--------------2~---------------------|
A|9~-9----------6-----------4----------2--------------2~---------------------|
E|7~-7----------4-----------2----------0--------------0~---------------------|

e|7-7---5---0~--|----|-------------------------------------------------------|
B|7-7---5---0~--|----|-------------------------------------------------------|
G|8-8---6---1~--|-X4-|-------------------------------------------------------|
D|9-9---7-2-2~--|----|-------------------------------------------------------|
A|9-9---7-2-2~--|----|-------------------------------------------------------|
E|7-7---5-0-0~--|----|-------------------------------------------------------|

Verse:
e|4~----4~----5~--------0~--------7~--|----|---------------------------------|
B|5~----4~----5~--------0~--------7~--|----|---------------------------------|
G|6~----4~----6~--------1~--------8~--|-X1-|---------------------------------|
D|6~----6~----7~--------2~--------9~--|----|---------------------------------|
A|4~----6~----7~--------2~--------9~--|----|---------------------------------|
E|4~----4~----5~--------0~--------7~--|----|---------------------------------|

 (same as above, but with more variation and arpeggios)
e|4~----4~----5~--------0~--------7~--|----|---------------------------------|
B|5~----4~----5~--------0~--------7~--|----|---------------------------------|
G|6~----4~----6~--------1~--------8~--|-X6-|---------------------------------|
D|6~----6~----7~--------2~--------9~--|----|---------------------------------|
A|4~----6~----7~--------2~--------9~--|----|---------------------------------|
E|4~----4~----5~--------0~--------7~--|----|---------------------------------|
 (then last last variation of verse)
e|4~----4~----5~-------------------------------------------------------------|
B|5~----4~----5~-------------------------------------------------------------|
G|6~----4~----6~-------------------------------------------------------------|
D|6~----6~----7~-------------------------------------------------------------|
A|4~----6~----7~-------------------------------------------------------------|
E|4~----4~----5~-------------------------------------------------------------|

e|7-7---5---0~--|----|-------------------------------------------------------|
B|7-7---5---0~--|----|-------------------------------------------------------|
G|8-8---6---1~--|-X4-|-------------------------------------------------------|
D|9-9---7-2-2~--|----|-------------------------------------------------------|
A|9-9---7-2-2~--|----|-------------------------------------------------------|
E|7-7---5-0-0~--|----|-------------------------------------------------------|

Bridge:
 (all chords played below are arpeggios)
e|0--------0--------0--------0--------|----|---------------------------------|
B|0--------0--------0--------0--------|----|---------------------------------|
G|1--------3--------2--------1--------|-X4-|---------------------------------|
D|2--------4--------3--------2--------|----|---------------------------------|
A|2--------4--------3--------2--------|----|---------------------------------|
E|0--------0--------0--------0--------|----|---------------------------------|

End:
 (variation of the two chords below, feel free to improvise)
e|0-----------------0-----------------|----|---------------------------------|
B|2-----------------0-----------------|----|---------------------------------|
G|1-----------------1-----------------|-X8-|---------------------------------|
D|2-----------------2-----------------|----|---------------------------------|
A|0-----------------2-----------------|----|---------------------------------|
E|0-----------------0-----------------|----|---------------------------------|

************************************

| /   slide up
| \   slide down
| h   hammer-on
| p   pull-off
| ~   vibrato
| +   harmonic
| x   Mute note
| b   Bend
| pb  Pre-bend
| br  Bend release
| pbr Pre-bend release
| brb Bend release bend

************************************
Suggest correction
What's this?
You can suggest a correction to this tab. Community and Mods will review your correction and vote to approve or reject it.
comments
print report bad tab
guest
You may want to rate the tab now too:
select rating
Please do not post tabs as comments. Select "correction" instead!