Oops, an error
Loading. Please wait.

Laura Bass Tab

1,281 views 3 this week
no commentswrite comment
1 2 3 4 5
please rate
add to favorites
launch autoscroll
font size
0
reset
guitar tuner
Tab Pro tools
  • play this tab
  • loop segment
  • change instrument
  • show fretboard
  • metronome
×
Best way to learn
"Laura"
Autoscroll
slow
fast
+/-
esc
set tempo
stop
Contributor
Listen to the song for the timing. I'm not really sure how many times the 5th fret 
on the E string is played as it's pretty hard to hear the bass in that part.

Verse:

G|----------------------------------------------------------------------|
D|----------------------------9-------------------------7-7-7-7-7-6-4-6-|
A|-7-7-----7-9-11-9-6-6-----6---9-7-------------------------------------|
E|-----7h9--------------7h9---------5-5-5-5-2h5-5-5-5-5-----------------|

Chorus:

G|-------4------------------------------------------------------------|
D|---4-6---6p4h6------------4-----------------------7-7---------------|
A|-7-------------6-4-6--4-6---6-4----------------------------5--------|
E|--------------------------------7-5-5-5-5-4h5-5-5-5-5--5-7----------|
comments
We did not receive enough feedback on this tab! Please rate:
print report bad tab
1 2 3 4 5
I want to post or [tab]
guest
You may want to rate the tab now too:
select rating
Please do not post tabs as comments. Select "correction" instead!