Oops, an error
Loading. Please wait.

Fling Tab

691 views 1 this week
2 commentsread comments
1 2 3 4 5
1 last vote to show rating
add to favorites
launch autoscroll
font size
0
reset
how to read this tab
guitar tuner
Autoscroll
slow
fast
+/-
esc
set tempo
stop
Help us to improve Ultimate-Guitar.com Take our survey!
×
Author
Difficulty
novice
Just the chorus power chords as simple as that but sounds awesome with the record.

|----------------------------------------------------------------|
|----------------------------------------------------------------|
|------------------9-9-9-9---------6-6-6-4-6-6-6-4-6-6-6-4-4-3-3-|
|--6-6-6-6-6-6-6-6-9-9-9-9-9-9-9-9-6-6-6-4-6-6-6-4-6-6-6-4-4-3-3-|
|--6-6-6-6-6-6-6-6-7-7-7-7-9-9-9-9-4-4-4-2-4-4-4-2-4-4-4-2-2-1-1-|
|--4-4-4-4-4-4-4-4---------7-7-7-7-------------------------------|
Suggest correction
Give kudos to tab author, rate the tab!
1 2 3 4 5
comments
print report bad tab
2 comments total.
0 reply
NintEndO 863 Dec 11, 2007 04:07 PM

Nice work. If you put the -466--- and everything after on the E string instead of the A string it makes it a little
easier to
play
|--------------------------------------------------------|
|-----------------------------------------------------
---|
|--------------------------------------------------------|
|--11-11-11-11-9--11-11-11-11-9--11-11-11-11-9--9--8--
8--|
|--11-11-11-11-9--11-11-11-11-9--11-11-11-11-9--9--8--8--|
|--9--9--9--9--7--9--9--9--9--7--9--9--9--9--7--7--6--
6--|

0 reply
NintEndO 863 Dec 11, 2007 04:09 PM

that came out badly but you get the idea

guest
You may want to rate the tab now too:
select rating
Wanna post a correction for this tab? Suggest correction