Oops, an error
Loading. Please wait.

Love Machine Bass Tab

7,200 views 9 this week
no commentswrite comment
1 2 3 4 5
please rate
add to favorites
launch autoscroll
font size
0
reset
guitar tuner
Autoscroll
slow
fast
+/-
esc
set tempo
stop
Help us to improve Ultimate-Guitar.com Take our survey!
×
g------------------|
d------5-3333-2-0--|
a------------------|
e--3---------------|

g------------------|
d------5-3333-2-0--|
a------------------|
e--3---------------|

g------------------|
d------5-3333-2-0--|
a------------------|
e--3---------------|

g------------------|
d------------------|
a--1111/3333-------|
e------------------|
Suggest correction
Give kudos to tab author, rate the tab!
1 2 3 4 5
comments
print report bad tab
guest
You may want to rate the tab now too:
select rating
Please do not post tabs as comments. Select "correction" instead!