Oops, an error
Loading. Please wait.

Love Machine Tab

version 1
version 1

Intro

Whole song

5,891 views 1 this week
2 commentsread comments
1 2 3 4 5
2 more votes to show rating
add to favorites
launch autoscroll
font size
0
reset
how to read this tab
guitar tuner
Autoscroll
slow
fast
+/-
esc
set tempo
stop
Help us to improve Ultimate-Guitar.com Take our survey!
×
heay ya, this is easy to play and so enjoy! you can do this on ya bass or guitar!
this is 100% correct so enjoy and hav fun!

Any probs or requests then e-mail . SammySyrett@hotmail.com   xxx sammy xxx

e----------------------------------------------------------------------------|
b----------------------------------------------------------------------------|
g----------------------------------------------------------------------------|
d----6--3333-2-0-------------------------------------------------------------|
a--------------------(times X) then------------------1111-3333---------------|
E--3-------------------------------------------------------------------------|
Suggest correction
Give kudos to tab author, rate the tab!
1 2 3 4 5
comments
print report bad tab
2 comments total.
0 reply
gibsonlespaul@h 10 Nov 28, 2004 12:00 AM

dont you think its
D----5-3333-20-------------
B-------------------
E--3-----------------

0 reply
Nath_Frusciante 132 Dec 25, 2004 12:00 AM

yes thats right

guest
You may want to rate the tab now too:
select rating
Wanna post a correction for this tab? Suggest correction