Oops, an error
Loading. Please wait.

Love Machine Tab

version 1
version 1

Whole song

6,513 views 6 this week
5 commentsread comments
1 2 3 4 5
worth learning
x 10
add to favorites
launch autoscroll
font size
0
reset
how to read this tab
guitar tuner
Autoscroll
slow
fast
+/-
esc
set tempo
stop
Help us to improve Ultimate-Guitar.com Take our survey!
×
Author
Girls Aloud - love machine
----------------------------

tabbed by: khalid

i think i  heared it like this please send any comments at (khassanain@hotmail.com)

-----------------------------------------------------------------------------------

[intro]

e|-------------------------------------|
B|-------------------------------------|
G|-------------------------------------|
D|-------6-----------------------------|
A|-------------------------------------|
E|---3-------333--320------------------|

[verse]


(guitar 1)
e|-------------------------------------|           e|---------------------| 
B|-------------------------------------|           b|---------------------|
G|-------------------------------------|           g|---------------------|
D|-------6-----------------------------|           d|----------5-333-2-0--|
A|-------------------------------------| ends with a|-1111-3--------------|
E|---3-------333--320------------------|           E|--------3------------|

(guitar 2)
e|-------------------------------------|
B|-------------------------------------|
G|---5---8---555---5-4-2---------------|
D|---5---8---555---5-4-2---------------|
A|---3---6---333---3-2-----------------|
E|-------------------------------------|

                   --------------------------------------------------
Suggest correction
comments
print report bad tab
5 comments total. Showing first comments.
0 reply
superfrood2000 50 wrote on December 21 2004, 12:00 am

it's definitely wrong. the first bit is
-----5---3333-2-0--
-------------------
-3-----------------

i'm worried that i know that, having hated the song ever since i heard it

0 reply
Nath_Frusciante 132 wrote on December 25 2004, 12:00 am

this an awful tab

0 reply
pirate_jessus 10 wrote on November 1 2006, 11:24 am

not accurate at all

guest
You may want to rate the tab now too:
select rating
Please do not post tabs as comments. Select "correction" instead!