Oops, an error
Loading. Please wait.

Love Machine Tab

version 3
version 3

Intro

Whole song

531 views 3 this week
no commentswrite comment
1 2 3 4 5
excellent!
x 1
add to favorites
launch autoscroll
font size
0
reset
how to read this tab
guitar tuner
Tab Pro tools
  • play this tab
  • loop segment
  • change instrument
  • show fretboard
  • metronome
Autoscroll
slow
fast
+/-
esc
set tempo
stop
Contributor
Difficulty
novice
-----------------------------------------------------------------------------
                             LOVE MACHINE - Girls Aloud
-----------------------------------------------------------------------------
Tabbed by: Luke Jackson
Email:lukeis2cool@hotmail.com
Tuning:e,a,d,g,b,e         **/slide**
--------------
INTRO
--------------
Guitar I
e|-------------------------------|
B|-------------------------------|
G|-------------------------------|
D|--5--3333-2-0----5--3333-2-0---|
A|-------------------------------|
E|3--------------3---------------|


-------------
CHORUS
-------------
Guitar I
e|-----------------------------------------------------------|
B|-----------------------------------------------------------|
G|---------------------------------------------3-3-3--5-5-5--|
D|--5--3333-2-0----5--3333-2-0----5--3333-2-0--3-3-3--5-5-5--|
A|---------------------------------------------1-1-1--3-3-3--|
E|3--------------3--------------3----------------------------|
 |                                                          |
Guitar II                                                   |
e|3--3--3--333---3--3--3--333---3--3--3--333-----------------|
B|3--3--3--333---3--3--3--333---3--3--3--333-----------------|
G|4--4--4--444---4--4--4--444---4--4--4--444---3-3-3--5-5-5--|   
D|5--5--5--555---5--5--5--555---5--5--5--555---3-3-3--5-5-5--|
A|5--5--5--555---5--5--5--555---5--5--5--555---1-1-1--3-3-3--|
E|3--3--3--333---3--3--3--333---3--3--3--333-----------------|
 |                                                          |
Bass                                                        |
G|-----------------------------------------------------------|
D|-----------------------------------------------------------|
A|---------------------------------------------1-1-1--3-3-3--|
E|3--3--3--333---3--3--3--333---3--3--3--333-----------------|


-----------
VERSE
-----------
Guitar I
e|--------3-----------------3-----------------3---------------------|
B|--------3-----------------3-----------------3---------------------|
G|--------4-----------------4-----------------4----------------5----|
D|--------5-----------------5-----------------5----------------5----|
A|--------5-----------------5-----------------5----------------3----|
E|--------3-----------------3-----------------3---------------------|
 |                                                                 |       x2
Bass                                                               |
G|------------------------------------------------------------------|
D|------------------------------------------------------------------|
A|------------------------------------------------------1-1-1--3-3-3|
E|3--3--3-3h6-3h6---3--3--3-3h6-3h6---3--3--3-3h6-3h6---------------|


Guitar I
e|-----------------------------------------------------------|
B|-----------------------------------------------------------|
G|---------------------------------------------3-3-3--5-5-5--|
D|--5--3333-2-0----5--3333-2-0----5--3333-2-0--3-3-3--5-5-5--|
A|---------------------------------------------1-1-1--3-3-3--|
E|3--------------3--------------3----------------------------|
 |                                                          |
Guitar II                                                   |
e|3--3--3--333---3--3--3--333---3--3--3--333-----------------|
B|3--3--3--333---3--3--3--333---3--3--3--333-----------------|
G|4--4--4--444---4--4--4--444---4--4--4--444---3-3-3--5-5-5--|   
D|5--5--5--555---5--5--5--555---5--5--5--555---3-3-3--5-5-5--|
A|5--5--5--555---5--5--5--555---5--5--5--555---1-1-1--3-3-3--|
E|3--3--3--333---3--3--3--333---3--3--3--333-----------------|
 |                                                          |
Bass                                                        |
G|-----------------------------------------------------------|
D|-----------------------------------------------------------|
A|---------------------------------------------1-1-1--3-3-3--|
E|3--3--3--333---3--3--3--333---3--3--3--333-----------------|


-----------
BRIDGE
-----------
Guitar I
e|-------------------------------------------------------------------------|
B|-------------------------------------------------------------------------|
G|-3---5---3---5------3---5---3---5555/77----------------------------------|
D|-3---5---3---5------3---5---3---5555/77----------------------------------|
A|-1---3---1---3------1---3---1---3333/55----------------------------------|
E|-------------------------------------------------------------------------|
 |                                                                        |
Guitar II                                                                 |
e|-------------------------------------------------------------------------|
B|-------------------------------------------------------------------------|
G|-3---5---3---5------3---5---3---5555/77----------------------------------|
D|-3---5---3---5------3---5---3---5555/77----------------------------------|
A|-1---3---1---3------1---3---1---3333/55----------------------------------|
E|-------------------------------------------------------------------------|
 |                                                                        |
Bass                                                                      |
G|-------------------------------------------------------------------------|
D|-------------------------------------------------------------------------|
A|-1---3---1---3------1---3---1---3333/55----------------------------------|
E|-------------------------------------------------------------------------|


-------------
CHORUS
-------------
Guitar I
e|-----------------------------------------------------------|
B|-----------------------------------------------------------|
G|---------------------------------------------3-3-3--5-5-5--|
D|--5--3333-2-0----5--3333-2-0----5--3333-2-0--3-3-3--5-5-5--|
A|---------------------------------------------1-1-1--3-3-3--|
E|3--------------3--------------3----------------------------|
 |                                                          |
Guitar II                                                   |
e|3--3--3--333---3--3--3--333---3--3--3--333-----------------|
B|3--3--3--333---3--3--3--333---3--3--3--333-----------------|
G|4--4--4--444---4--4--4--444---4--4--4--444---3-3-3--5-5-5--| X2
D|5--5--5--555---5--5--5--555---5--5--5--555---3-3-3--5-5-5--|
A|5--5--5--555---5--5--5--555---5--5--5--555---1-1-1--3-3-3--|
E|3--3--3--333---3--3--3--333---3--3--3--333-----------------|
 |                                                          |
Bass                                                        |
G|-----------------------------------------------------------|
D|-----------------------------------------------------------|
A|---------------------------------------------1-1-1--3-3-3--|
E|3--3--3--333---3--3--3--333---3--3--3--333-----------------|


-----------
2ND VERSE
-----------
Guitar I
e|--------3-----------------3-----------------3---------------------|
B|--------3-----------------3-----------------3---------------------|
G|--------4-----------------4-----------------4----------------5----|
D|--------5-----------------5-----------------5----------------5----|
A|--------5-----------------5-----------------5----------------3----|
E|--------3-----------------3-----------------3---------------------|
 |                                                                 |   x2
Bass                                                               |
G|------------------------------------------------------------------|
D|------------------------------------------------------------------|
A|------------------------------------------------------1-1-1--3-3-3|
E|3--3--3-3h6-3h6---3--3--3-3h6-3h6---3--3--3-3h6-3h6---------------|


Guitar I
e|-----------------------------------------------------------|
B|-----------------------------------------------------------|
G|---------------------------------------------3-3-3--5-5-5--|
D|--5--3333-2-0----5--3333-2-0----5--3333-2-0--3-3-3--5-5-5--|
A|---------------------------------------------1-1-1--3-3-3--|
E|3--------------3--------------3----------------------------|
 |                                                          |
Guitar II                                                   |
e|3--3--3--333---3--3--3--333---3--3--3--333-----------------|
B|3--3--3--333---3--3--3--333---3--3--3--333-----------------|
G|4--4--4--444---4--4--4--444---4--4--4--444---3-3-3--5-5-5--|   
D|5--5--5--555---5--5--5--555---5--5--5--555---3-3-3--5-5-5--|
A|5--5--5--555---5--5--5--555---5--5--5--555---1-1-1--3-3-3--|
E|3--3--3--333---3--3--3--333---3--3--3--333-----------------|
 |                                                          |
Bass                                                        |
G|-----------------------------------------------------------|
D|-----------------------------------------------------------|
A|---------------------------------------------1-1-1--3-3-3--|
E|3--3--3--333---3--3--3--333---3--3--3--333-----------------|


-----------
2ND BRIDGE
-----------
Guitar I
e|-------------------------------------------------------------------------|
B|-------------------------------------------------------------------------|
G|-3---5---3---5------3---5---3---5555/77----------------------------------|
D|-3---5---3---5------3---5---3---5555/77----------------------------------|
A|-1---3---1---3------1---3---1---3333/55----------------------------------|
E|-------------------------------------------------------------------------|
 |                                                                        |
Guitar II                                                                 |
e|-------------------------------------------------------------------------|
B|-------------------------------------------------------------------------|
G|-3---5---3---5------3---5---3---5555/77----------------------------------|
D|-3---5---3---5------3---5---3---5555/77----------------------------------|
A|-1---3---1---3------1---3---1---3333/55----------------------------------|
E|-------------------------------------------------------------------------|
 |                                                                        |
Bass                                                                      |
G|-------------------------------------------------------------------------|
D|-------------------------------------------------------------------------|
A|-1---3---1---3------1---3---1---3333/55----------------------------------|
E|-------------------------------------------------------------------------|


---------------
CHORUS & OUTRO
---------------
Guitar I
e|-----------------------------------------------------------|
B|-----------------------------------------------------------|
G|---------------------------------------------3-3-3--5-5-5--|
D|--5--3333-2-0----5--3333-2-0----5--3333-2-0--3-3-3--5-5-5--|
A|---------------------------------------------1-1-1--3-3-3--|
E|3--------------3--------------3----------------------------|
 |                                                          |
Guitar II                                                   |
e|3--3--3--333---3--3--3--333---3--3--3--333-----------------|
B|3--3--3--333---3--3--3--333---3--3--3--333-----------------|
G|4--4--4--444---4--4--4--444---4--4--4--444---3-3-3--5-5-5--| X8
D|5--5--5--555---5--5--5--555---5--5--5--555---3-3-3--5-5-5--|
A|5--5--5--555---5--5--5--555---5--5--5--555---1-1-1--3-3-3--|
E|3--3--3--333---3--3--3--333---3--3--3--333-----------------|
 |                                                          |
Bass                                                        |
G|-----------------------------------------------------------|
D|-----------------------------------------------------------|
A|---------------------------------------------1-1-1--3-3-3--|
E|3--3--3--333---3--3--3--333---3--3--3--333-----------------|
comments
We did not receive enough feedback on this tab! Please rate:
print report bad tab
1 2 3 4 5
I want to post or [tab]
guest
You may want to rate the tab now too:
select rating
Please do not post tabs as comments. Select "correction" instead!