Oops, an error
Loading. Please wait.

The Promise Bass Tab

797 views 3 this week
no commentswrite comment
1 2 3 4 5
please rate
add to favorites
launch autoscroll
font size
0
reset
guitar tuner
Tab Pro tools
  • play this tab
  • loop segment
  • change instrument
  • show fretboard
  • metronome
×
Best way to learn
"The Promise"
Autoscroll
slow
fast
+/-
esc
set tempo
stop
Contributor
Difficulty
intermediate
-------------------------------------------------------------------------------
			     THE PROMISE - Girls Aloud
-------------------------------------------------------------------------------

Tabbed By : WibbleWobble
e-mail: organisedchaos@talktalk.net

Tuning: standard EADG - classy pop

INTRO play x 10
G|---------------------------------------------------------------------------|
D|---------------------------------------------------------------------------|
A|---------------------------------------------------------------------------|
E|-5-55-55-5-3-0-3-----------------------------------------------------------|

straight into chorus "you're gonna make me make me love you"
G|---------------------------------------------------------------------------|
D|-----9------9-9-7---7------9----9-9-7---7-------7------7-7-5---7------7----|
A|---9---9----------9------9--9---------9-------7---7----------7------7---7--|
E|-7-------7-------------7------7-------------5-------5-------------5--------|

G|-----------------------------------------9------9-9-6-7-8-9----------------|
D|---7-7-5---7-----9-------9-9-7---7-----9---9---------------------7------7--|
A|---------7-----9---9-----------5----7--------7-----------------7---7-------|
E|-5-----------7-------7---------------------------------------5-------5-----|

G|---------------------------------------------------------------------------|
D|-7-5---5-------------7------7-7-5---5--------------------------------------|
A|-----7---7-5-------7---7----------7----------------------------------------|
E|-------------5---5-------5------------5------------------------------------|

2nd verse
G|----------------------------9----9-9-7---7---------------------------------|
D|-----9------9-9-7---7-----9---7--------9-----------------------------------|
A|---9---9----------9----7---------------------------------------------------|
E|-7-------7--------------------7-------------5-55-55-5-3-0-3-5-55-55-5-3-0--|

G|-------------------------------9------9-9-7---7--------11--------11-11-9---|
D|---------9------9-9-7---7----9---9----------9-------11----11---------------|
A|-------9---9----------9----7-------7--------------9-----------9------------|
E|-5---7-------7-------------------------------------------------------------|

G|----9--------------------------------------5-7---------------------4-5-7---|
D|-11--------7-----------------5-------5-6-7--------------------5/7----------|
A|---------7---7------4-5-6-7----5---7-----------0---------7-5---------------|
E|-------5-------5--7------------------------------3/5-5-7-------------------|

REPEAT CHORUS
repeat 2nd verse  (not sure it's 100% the same but near enough?)
REPEAT CHORUS

Bridge @ 3:12 in goes:
G|---------------------------------------------------------------------------|
D|---------------------------------------------------------------------------|
A|---------------------------------------------------------------------------|
E|-7~--5~--7~ 0~--5~---------------------------------------------------------|

last verse (key change !!!!)

G|---------------------------------------------------------------------------|
D|-------10--------10-10-8----8--------10-------10-10--8----8--------8-------|
A|---10-----10-------------10-------10----10-------------10--------8---8-----|
E|-8------------8-----------------8----------8-------------------6-------6---|

G|------------------------------------------------------------10-------------|
D|--8-8-6----6-------8-------8-8-6----6-----------8------8-10----10--10-8----|
A|--------8-------8----8-----------8---------8-10---8-10---------------------|
E|--------------6--------6--------------8-10---------------------------------|
comments
We did not receive enough feedback on this tab! Please rate:
print report bad tab
1 2 3 4 5
I want to post or [tab]
guest
You may want to rate the tab now too:
select rating
Please do not post tabs as comments. Select "correction" instead!