Oops, an error
Loading. Please wait.

Wake Me Up Bass Tab

213 views 1 this week
no commentswrite comment
1 2 3 4 5
please rate
add to favorites
launch autoscroll
font size
0
reset
guitar tuner
Tab Pro tools
  • play this tab
  • loop segment
  • change instrument
  • show fretboard
  • metronome
Autoscroll
slow
fast
+/-
esc
set tempo
stop
Contributor
Difficulty
Girls Aloud - Wake Me Up

Standard Tuning

0:15

G---------------------------------|
D-2-2-2-2-----------------5-5-4-4-|
A---------1-1-1-2-2-2-2-2---------|
E---------------------------------|

G---------------------------------|
D-2-2-2-2-------------------------|
A---------1-1-1-2-2-2-2-2-2-2-2-2-|
E---------------------------------|

Pretty much this for the rest of the song except at 0:46 to 0:50 where you jus play more 
E (2nd fret on the D string)

Also, there seems to be a slight variation after that section where the bass plays on 
its own (2:22 to 2:37)

It should sound something like this...

G---------------------------------|
D-2-2-2-2-----------------5-5-4-4-|
A---------1-1-1-2-2-2-2-2---------|
E---------------------------------|

G-------------------4-------------|
D-2-2-2-2-------------------------|
A---------1-1-1-2-2---2-2-2-2-2-2-|
E---------------------------------|

Basically just an octave up on one note and you play this until fade out.

End

There are also some other variations in the way the bass is played. There are certain 
times when the bass holds the nots at the end of phrases instead of continuous picking but 
you can just listen out for those.
comments
We did not receive enough feedback on this tab! Please rate:
print report bad tab
1 2 3 4 5
I want to post or [tab]
guest
You may want to rate the tab now too:
select rating
Please do not post tabs as comments. Select "correction" instead!