Oops, an error
Loading. Please wait.

Emergency bass

1,565 views 18 this week
no commentswrite comment
1 2 3 4 5
3 more votes to show rating
add to favorites
×
Save as Personal and add changes to this tab that will be seen only by you. Learn more ›
×
You can save this tab as Personal to edit and correct it or add notes. All changes will be seen only by you. Learn more »
launch autoscroll
font size
0
reset
guitar tuner
edit
Autoscroll
slow
fast
+/-
esc
set tempo
stop
Author
Difficulty
Emergency - Girlschool

2 tempo guitarra, después:
|--------------------------------|x2 |---------------------------------|
|--------------------------------|   |---------------------------------|
|7-7-7-7-7-7-7-7-3-3-3-3-3-3-3-3-|   |7-7-7-7-7-7-7-7-3-33-333-5-55-555|
|--------------------------------|   |---------------------------------|

1er estrofa (verso 1 y 3 - verso 2 y 4)
|--------------------------------|--------------------------------|x2
|--------------------------------|--------------------------------|
|7-7-7-7-7-7-7-7-7-7-7-7-7-7-7-7-|5-5-5-5-5-5-5-5-5-5-5-5-5-5-5-5-|
|--------------------------------|--------------------------------|

Can't make out the things they said
                                  Spent too many nights getting out of my head
They must be mad, must be blind
                                  Driving me crazy right out of my mind

Estribillo
|-------------------------------|-------------------------------|
|-------------------------------|-------------------------------|
|7-7-7-7-7-7-7-7-7-7-7-7-7-55-7-|3-3-3-3-3-3-3-3-3-3-3-3-5-33-5-|
|-------------------------------|-------------------------------|
 999 emergency, emergency x2

|-------------------------------|-------------------------------|
|-------------------------------|-------------------------------|
|7-7-7-7-7-7-7-7-7-7-7-7-7-55-7-|3-3-3-3-0-0-0-0-0-0-0-0-0-0-0-0|
|-------------------------------|-------------------------------|
 999 emergency emergency - nnnn nine nine, emergency


1 tempo guitarra, después
|---------------------------------|
|---------------------------------|
|7-7-7-7-7-7-7-7-3-33-333-5-55-555|
|---------------------------------|


2da estrofa (verso 1 y 3 - verso 2 y 4)
|--------------------------------|--------------------------------|x2
|--------------------------------|--------------------------------|
|7-7-7-7-7-7-7-7-7-7-7-7-7-7-7-7-|5-5-5-5-5-5-5-5-5-5-5-5-5-5-5-5-|
|--------------------------------|--------------------------------|

Can't thing straight, can't decide
                                 'Cause time's running out and there's nowhere to hide
Where to run, what to do
                                 Better look out, cause they're coming for you!


Estribillo
|-------------------------------|-------------------------------|
|-------------------------------|-------------------------------|
|7-7-7-7-7-7-7-7-7-7-7-7-7-55-7-|3-3-3-3-3-3-3-3-3-3-3-3-5-33-5-|
|-------------------------------|-------------------------------|
 999 emergency, emergency x2

|-------------------------------|-------------------------------|
|-------------------------------|-------------------------------|
|7-7-7-7-7-7-7-7-7-7-7-7-7-55-7-|3-3-3-3-0-0-0-0-0-0-0-0-0-0-0-0|
|-------------------------------|-------------------------------|
 999 emergency emergency - nnnn nine nine, emergency


Solo de Guitarra
|---------------------------------|---------------------------------|x2
|---------------------------------|---------------------------------|
|7-7-7-7-7-7-7-7-3-33-333-5-55-555|7-7-7-7-7-7-7-7-3-33-333-5-55-555|
|---------------------------------|---------------------------------|

|---------------------------------|---------------------------------|x2
|---------------------------------|---------------------------------|
|7-7-7-7-7-7-7-7-3-33-333-5-55-555|7-7-7-7-7-7-7-7-3-33-333-5-55-555|
|---------------------------------|---------------------------------|
	Emergency!

----------
Estribillo
----------

|---------------------------------|x2
|---------------------------------|
|7-7-7-7-7-7-7-7-3-33-333-5-55-555|
|---------------------------------|

            
            
Suggest correction
Creating personal tab
Creating personal tab
You can edit any tab online and save it as your Personal.

You can edit, replace or remove any tab part or add personal notes – all changes will be seen only by you.

Personal tabs can be accessed anytime from any device, even offline.
Learn more »
Give kudos to tab author, rate the tab!
1 2 3 4 5
comments
print report bad tab
guest
You may want to rate the tab now too:
select rating
Wanna post a correction for this tab? Suggest correction