Oops, an error
Loading. Please wait.

Aire De Todos Bass Tab

by Git
91 views 1 this week
no commentswrite comment
1 2 3 4 5
3 more votes to show rating
add to favorites
launch autoscroll
font size
0
reset
guitar tuner
Autoscroll
slow
fast
+/-
esc
set tempo
stop
Help us to improve Ultimate-Guitar.com Take our survey!
×
Hola, que tal, ahora desde Piura-Perú, les saluda Raúl, ?el loco
bass?, y en esta oportunidad les traigo una muy buena canción de
mi grupo favorito Git  ?Oh mi amor, no todo lo que brilla es
oro?.

**********************************************************

ºººINTROººº

          C                A#                 F
G|-------------5---|---------3------|-----------------|
D|----------5------|----------------|-----------------|
A|-------3---------|-----1----------|-----------------|
E|-----------------|----------------|----1-11--1-11---|

          C                A#                 F
G|-------------5---|---------3------|-----------------|
D|----------5------|----------------|-----------------|
A|-------3---------|-----1----------|-----------------|
E|-----------------|----------------|----1-11--1-11---|


ºººPRIMERA ESTROFAººº

   Veo   en   la   calle   a   gente   dormida
          C                A#                 F
G|-------------5---|---------3------|-----------------|
D|----------5------|----------------|-----------------|
A|-------3---------|-----1----------|-----------------|
E|-----------------|----------------|----1-11--1-11---|


   Que   no   se   acuerdan   ya ,   de   pensar
          C                A#                 F
G|-------------5---|---------3------|-----------------|
D|----------5------|----------------|-----------------|
A|-------3---------|-----1----------|-----------------|
E|-----------------|----------------|----1-11--1-11---|


   Veo   en   la   calle   a   gente   engañada
          C                A#                 F
G|-------------5---|---------3------|-----------------|
D|----------5------|----------------|-----------------|
A|-------3---------|-----1----------|-----------------|
E|-----------------|----------------|----1-11--1-11---|


   Que   aplaude   todo   lo   que   le   dan
          C                A#                 F
G|-------------5---|---------3------|-----------------|
D|----------5------|----------------|-----------------|
A|-------3---------|-----1----------|-----------------|
E|-----------------|----------------|----1-11--1-11---|


ºººCOROººº

   Oh  mi  amor ,  no  todo  lo  que  brilla  es  oro
         Am                 G                F
G|-----------------|----------------|-----------------|
D|-----------------|----------------|-----------------|
A|-----------------|----------------|-----------------|
E|------5-55-------|------3-33------|----1-11--1-11---|

    Oh  no  no ,  lo  único  es
         Am                 G
G|-----------------|----------------|
D|-----------------|----------------|
A|-----------------|----------------|
E|------5-55-------|------3-33------|


ºººSEGUNDA ESTROFAººº

   Si   algun   dia   nos   dieran   la   llave
         C                 A#                F
G|-----------------|----------------|-----------------|
D|-----------------|----------------|-----------------|
A|-----------------|----------------|-----------------|
E|----8888s0-------|-----66s1-------|----1-11--1-11---|

  No   habría   más   puertas   que   golpear
         C                 A#                F
G|-----------------|----------------|-----------------|
D|-----------------|----------------|-----------------|
A|-----------------|----------------|-----------------|
E|----8888s0-------|-----66s1-------|----1-11--1-11---|

  Si   algún   día   fueran   nuestras   las  puertas
         C                 A#                F
G|-----------------|----------------|-----------------|
D|-----------------|----------------|-----------------|
A|-----------------|----------------|-----------------|
E|----8888s0-------|-----66s1-------|----1-11--1-11---|

   Te   imaginas   saber   la   verdad
         C                 A#                F
G|-----------------|----------------|-----------------|
D|-----------------|----------------|-----------------|
A|-----------------|----------------|-----------------|
E|----8888s0-------|-----66s1-------|----1-11--1-11---|
ºººCOROººº

   Oh  mi  amor ,  no  todo  lo  que  brilla  es  oro
         Am                 G                F
G|-----------------|----------------|-----------------|
D|-----------------|----------------|-----------------|
A|-----------------|----------------|-----------------|
E|------5-55-------|------3-33------|----1-11--1-11---|

    Oh  no  no ,  lo  único  es  tu  amor
        Am                 G                F
G|-----------------|----------------|-----------------|
D|-----------------|----------------|-----------------|
A|-----------------|----------------|-----------------|
E|------5-55-------|------3-33------|----1-11--1-11---|

Oh  mi  amor ,  no  todo  lo  que  brilla  es  oro
         Am                 G                F
G|-----------------|----------------|-----------------|
D|-----------------|----------------|-----------------|
A|-----------------|----------------|-----------------|
E|------5-55-------|------3-33------|----1-11--1-11---|

    Oh  no  no ,  lo  único  es  tu  amor
       Am                  G                 F
G|-----------------|----------------|-----------------|
D|-----------------|----------------|-----------------|
A|-----------------|----------------|-----------------|
E|------5-55-------|------3-33------|----1-11--1-11---|

Un día de estos la gente va a cambiar
Un día de estas la gente va a bailar

    Y en la calle, se podrá respirar
                    F
G|------------------------------------|
D|------------------------------------|
A|------------------------------------|
E|-----1-----1------1------1----------|

ºººPUENTEººº

       Respirar ,   aire   de   todos
          C                A#                 F
G|-------------5---|---------3------|-----------------|
D|----------5------|----------------|-----------------|
A|-------3---------|-----1----------|-----------------|
E|-----------------|----------------|----1-11--1-11---|

       Respirar ,   aire   de   todos
          C                A#                 F
G|-------------5---|---------3------|-----------------|
D|----------5------|----------------|-----------------|
A|-------3---------|-----1----------|-----------------|
E|-----------------|----------------|----1-11--1-11---|

  Respirar(respirar con amor) ,   aire   de   todos
          C                A#                 F
G|-------------5---|---------3------|-----------------|
D|----------5------|----------------|-----------------|
A|-------3---------|-----1----------|-----------------|
E|-----------------|----------------|----1-11--1-11---|

  Respirar(respirar con amor) ,   aire   de   todos, ehhh
          C                A#                 F
G|-------------5---|---------3------|-----------------|
D|----------5------|----------------|-----------------|
A|-------3---------|-----1----------|-----------------|
E|-----------------|----------------|----1-11--1-11---|


ºººSOLOººº

         C                 A#                 F
G|-------5555h7----|-----777h9------|---9999 7777-----|
D|-----------------|----------------|-----------------|
A|-----------------|----------------|-----------------|
E|-----------------|----------------|-----------------|

         C                 A#                 F
G|-------5555h7----|-----777h9------|---9999 7777-----|
D|-----------------|----------------|-----------------|
A|-----------------|----------------|-----------------|
E|-----------------|----------------|-----------------|


Si algún día fueran nuestras las puertas
ya no tendríamos que golpear
cuando la gente se sienta libre
no habrá fantasmas en la oscuridad
Oh mi amor, no todo lo que brilla es oro
Oh no no, lo único es tu amor
Oh mi amor, no todo lo que brilla es oro
Oh no no, lo único es?

ºººPuenteººº

        Respirar ,   aire   de   todos
         C                 A#                F
G|-----------------|----------------|-----------------|
D|-----------------|----------------|-----------------|
A|-----------------|----------------|-----------------|
E|----8888s0-------|-----66s1-------|----1-11--1-11---|

       Respirar ,   aire   de   todos
          C                A#                 F
G|-------------5---|---------3------|-----------------|
D|----------5------|----------------|-----------------|
A|-------3---------|-----1----------|-----------------|
E|-----------------|----------------|----1-11--1-11---|

  Respirar(respirar con amor) ,   aire   de   todos
         C                 A#                F
G|-----------------|----------------|-----------------|
D|-----------------|----------------|-----------------|
A|-----------------|----------------|-----------------|
E|----8888s0-------|-----66s1-------|----1-11--1-11---|


  Respirar(respirar con amor) ,   aire   de   todos,
          C                A#                 F
G|-------------5---|---------3------|-----------------|
D|----------5------|----------------|-----------------|
A|-------3---------|-----1----------|-----------------|
E|-----------------|----------------|----1-11--1-11---|
        Respirar ,   aire   de   todos
         C                 A#                F
G|-----------------|----------------|-----------------|
D|-----------------|----------------|-----------------|
A|-----------------|----------------|-----------------|
E|----8888s0-------|-----66s1-------|----1-11--1-11---|

       Respirar ,   aire   de   todos
          C                A#                 F
G|-------------5---|---------3------|-----------------|
D|----------5------|----------------|-----------------|
A|-------3---------|-----1----------|-----------------|
E|-----------------|----------------|----1-11--1-11---|

  Respirar(respirar con amor) ,   aire   de   todos
         C                 A#                F
G|-----------------|----------------|-----------------|
D|-----------------|----------------|-----------------|
A|-----------------|----------------|-----------------|
E|----8888s0-------|-----66s1-------|----1-11--1-11---|


    Respirar
          C
G|-----------------|
D|-----------------|
A|--------3--------|
E|-----------------|

****************************************************************
Suggest correction
Give kudos to tab author, rate the tab!
1 2 3 4 5
comments
print report bad tab
guest
You may want to rate the tab now too:
select rating
Wanna post a correction for this tab? Suggest correction