Oops, an error
Loading. Please wait.

Gooey tab

version 2
version 2

Whole song

  • Slightly simplified chorus, accurate intro/verse.
712 views 6 this week
no commentswrite comment
1 2 3 4 5
3 more votes to show rating
add to favorites
×
Save as Personal and add changes to this tab that will be seen only by you. Learn more ›
×
You can save this tab as Personal to edit and correct it or add notes. All changes will be seen only by you. Learn more »
launch autoscroll
font size
0
reset
how to read this tab
guitar tuner
edit
Autoscroll
slow
fast
+/-
esc
set tempo
stop
Author
Difficulty
Bm: x24432
Gmaj7: 0x4432
Em7: 022030
F#m7: 2x22x2

[Intro]

e|------------9----------------9-------------7-------------7-----------------|
B|---------10---------------10-------------7-------------7-------------------|
G|------11---------------11--------------7-------------7---------------------|
D|-9h12-------------9h12-------------7h9-----------7h9-----------------------|
A|---------------------------------------------------------------------------|
E|---------------------------------------------------------------------------|


[Verse]

e|------------9----------------9-------------7-------------7-----------------|
B|---------10---------------10-------------7-------------7-------------------|
G|------11---------------11--------------7-------------7---------------------|x2
D|-9h12-------------9h12-------------7h9-----------7h9-----------------------|
A|---------------------------------------------------------------------------|
E|---------------------------------------------------------------------------|
Alright, come close
Let me show you everything I know
The jungle slang
Spinning 'round my head and I stare
 
 (plucking)
e|------x--------x--------x-----------------x--------x--------x------------|
B|--3-3-x-3--3---x----3-3-x-3--3--------3-3-x-3--3---x----3-3-x-3--3-------|
G|--4-4-x-4--4---x----4-4-x-4--4--------4-4-x-4--4---x----4-4-x-4--4-------|
D|--4-4-x-4--4---x----4-4-x-4--4--------4-4-x-4--4---x----4-4-x-4--4-------|
A|--2-2-x-2--2---x----2-2-x-2--2--------2-2-x-2--2---x----2-2-x-2--2-------|
E|------x--------x--------x--------2--------x--------x--------x---------2--|
While my naked fool
Fresh out of an icky gooey womb

e|------x----------------x------------0-0-x-0--0-------2-2-x-2--2-------|
B|--3-3-x-3--3-------3-3-x-3--3-------1-1-x-1--1-------x-x-x-x--x-------|
G|--4-4-x-4--4-------4-4-x-4--4-------0-0-x-0--0-------2-2-x-2--2-------|
D|--4-4-x-4--4-------4-4-x-4--4-------2-2-x-2--2-------2-2-x-2--2---0---|
A|--2-2-x-2--2---0-------x------------2-2-x-2--2-------x-x-x-x--x-------|
E|------x------------3-3-x-3--3---2---0-0-x-0--0---1---2-2-x-2--2-------|
A woozy youth
Dopes up on her silky smooth perfume

[Pre-Chorus]

e|------x----------------x------------0-0-x-0--0-------2-2-x-2--2-------|
B|--3-3-x-3--3-------3-3-x-3--3-------1-1-x-1--1-------x-x-x-x--x-------|
G|--4-4-x-4--4-------4-4-x-4--4-------0-0-x-0--0-------2-2-x-2--2-------|x2
D|--4-4-x-4--4-------4-4-x-4--4-------2-2-x-2--2-------2-2-x-2--2---0---|
A|--2-2-x-2--2---0-------x------------2-2-x-2--2-------x-x-x-x--x-------|
E|------x------------3-3-x-3--3---2---0-0-x-0--0---1---2-2-x-2--2-------|
Right, my little pooh bear, wanna take a chance?
Wanna sip the smooth air, kick it in the sand
I'd say I told you so but you just gonna cry
You just wanna know those peanut butter vibes

[Chorus]
(freestyle strumming)
E|----------------------------------0-0--0--0-------2-2--2--2-------|
B|--3-3--3--3-------3-3--3--3-------1-1--1--1-------x-x--x--x-------|
G|--4-4--4--4-------4-4--4--4-------0-0--0--0-------2-2--2--2-------| x2
D|--4-4--4--4-------4-4--4--4-------2-2--2--2-------2-2--2--2---0---|
A|--2-2--2--2---0-------------------2-2--2--2-------x-x--x--x-------|
E|------------------3-3--3--3---2---0-0--0--0---1---2-2--2--2-2-----|
My, my simple sir, this ain't gonna work
Mind my wicked words and tipsy topsy slurs
I can't take this place, no I can't take this place
I just wanna go where I can get some space

[Verse]

e|------x----------------x----------------x------------0-0-x-0--0-------2-2-x-2--2-------|
B|--3-3-x-3--3-------3-3-x-3--3-------3-3-x-3--3-------1-1-x-1--1-------x-x-x-x--x-------|
G|--4-4-x-4--4-------4-4-x-4--4-------4-4-x-4--4-------0-0-x-0--0-------2-2-x-2--2-------|
D|--4-4-x-4--4-------4-4-x-4--4-------4-4-x-4--4-------2-2-x-2--2-------2-2-x-2--2---0---|
A|--2-2-x-2--2-------2-2-x-2--2---0-------x------------2-2-x-2--2-------x-x-x-x--x-------|
E|------x----------------x------------3-3-x-3--3---2---0-0-x-0--0---1---2-2-x-2--2-------|
Truth be told
I've been here, I've done this all before

e|------x----------------x------------0-0-x-0--0-------2-2-x-2--2-------|
B|--3-3-x-3--3-------3-3-x-3--3-------1-1-x-1--1-------x-x-x-x--x-------|
G|--4-4-x-4--4-------4-4-x-4--4-------0-0-x-0--0-------2-2-x-2--2-------|
D|--4-4-x-4--4-------4-4-x-4--4-------2-2-x-2--2-------2-2-x-2--2---0---|
A|--2-2-x-2--2---0-------x------------2-2-x-2--2-------x-x-x-x--x-------|
E|------x------------3-3-x-3--3---2---0-0-x-0--0---1---2-2-x-2--2-------|
I take your gloom
I curl it up and puff it into plumes

[Pre-Chorus]

e|------x----------------x------------0-0-x-0--0-------2-2-x-2--2-------|
B|--3-3-x-3--3-------3-3-x-3--3-------1-1-x-1--1-------x-x-x-x--x-------|
G|--4-4-x-4--4-------4-4-x-4--4-------0-0-x-0--0-------2-2-x-2--2-------|
D|--4-4-x-4--4-------4-4-x-4--4-------2-2-x-2--2-------2-2-x-2--2---0---|
A|--2-2-x-2--2---0-------x------------2-2-x-2--2-------x-x-x-x--x-------|
E|------x------------3-3-x-3--3---2---0-0-x-0--0---1---2-2-x-2--2-------|
Right, my little pooh bear, wanna take a chance?
Wanna sip this smooth air, kick it in the sand
e|------x----------------x------------0-0-x-0--0------------------------|
B|--3-3-x-3--3-------3-3-x-3--3-------1-1-x-1--1------------------------|
G|--4-4-x-4--4-------4-4-x-4--4-------0-0-x-0--0------------------------|
D|--4-4-x-4--4-------4-4-x-4--4-------2-2-x-2--2--------------------12/-|
A|--2-2-x-2--2---0-------x------------2-2-x-2--2------------------------|
E|------x------------3-3-x-3--3---2---0-0-x-0--0---1--------------------|
I'd say I told you so but you just gonna cry
You just wanna know those peanut butter vibes

[Chorus]
(freestyle strumming)
E|----------------------------------0-0--0--0-------2-2--2--2-------|
B|--3-3--3--3-------3-3--3--3-------1-1--1--1-------x-x--x--x-------|
G|--4-4--4--4-------4-4--4--4-------0-0--0--0-------2-2--2--2-------| x2
D|--4-4--4--4-------4-4--4--4-------2-2--2--2-------2-2--2--2---0---|
A|--2-2--2--2---0-------------------2-2--2--2-------x-x--x--x-------|
E|------------------3-3--3--3---2---0-0--0--0---1---2-2--2--2-2-----|
My, my simple sir, this ain't gonna work
Mind my wicked words and tipsy topsy slurs
I can't take this place, no I can't take this place
I just wanna go where I can get some space

[Bridge]

e|------------9----------------9----------------9----------------9----------|
B|---------10---------------10---------------10---------------10------------|
G|------11---------------11---------------11---------------11---------------|
D|-9h12-------------9h12-------------9h12-------------9h12------------------|
A|--------------------------------------------------------------------------|
E|--------------------------------------------------------------------------|

 (plucking)
e|------x--------x--------x-----------------x--------x--------x------------|
B|--3-3-x-3--3---x----3-3-x-3--3--------3-3-x-3--3---x----3-3-x-3--3-------|
G|--4-4-x-4--4---x----4-4-x-4--4--------4-4-x-4--4---x----4-4-x-4--4-------|x2
D|--4-4-x-4--4---x----4-4-x-4--4--------4-4-x-4--4---x----4-4-x-4--4-------|
A|--2-2-x-2--2---x----2-2-x-2--2--------2-2-x-2--2---x----2-2-x-2--2-------|
E|------x--------x--------x--------2--------x--------x--------x---------2--|

e|------x--------x--------x---------------------7---------------7--------|
B|--3-3-x-3--3---x----3-3-x-3--3--------------7---------------7----------|
G|--4-4-x-4--4---x----4-4-x-4--4------------7---------------7------------|
D|--4-4-x-4--4---x----4-4-x-4--4--------7h9-------------7h9--------------|
A|--2-2-x-2--2---x----2-2-x-2--2-----------------------------------------|
E|------x--------x--------x--------2-------------------------------------|
Hold my hand and float back to the summer time
Tangled in the willows now our tongues are tied
How can I believe you, how can I be nice
Tripping around the tree stumps in your summer smile

[Pre-Chorus]
(freestyle strumming)
e|------x----------------x------------0-0-x-0--0-------2-2-x-2--2-------|
B|--3-3-x-3--3-------3-3-x-3--3-------1-1-x-1--1-------x-x-x-x--x-------|
G|--4-4-x-4--4-------4-4-x-4--4-------0-0-x-0--0-------2-2-x-2--2-------|x2
D|--4-4-x-4--4-------4-4-x-4--4-------2-2-x-2--2-------2-2-x-2--2---0---|
A|--2-2-x-2--2---0-------x------------2-2-x-2--2-------x-x-x-x--x-------|
E|------x------------3-3-x-3--3---2---0-0-x-0--0---1---2-2-x-2--2-------|
Right, my little pooh bear, wanna take a chance?
Wanna sip the smooth air, kick it in the sand
I'd say I told you so but you just gonna cry
You just wanna know those peanut butter vibes

[Chorus]
(go ham)
E|----------------------------------0-0--0--0-------2-2--2--2-------|
B|--3-3--3--3-------3-3--3--3-------1-1--1--1-------x-x--x--x-------|
G|--4-4--4--4-------4-4--4--4-------0-0--0--0-------2-2--2--2-------| x2
D|--4-4--4--4-------4-4--4--4-------2-2--2--2-------2-2--2--2---0---|
A|--2-2--2--2---0-------------------2-2--2--2-------x-x--x--x-------|
E|------------------3-3--3--3---2---0-0--0--0---1---2-2--2--2-2-----|
My, my simple sir, this ain't gonna work
Mind my wicked words and tipsy topsy slurs
I can't take this place, no I can't take this place
I just wanna go where I can get some space

[Outro]

E|----------------------------------0-0--0--0-------2-2--2--2-------|
B|--3-3--3--3-------3-3--3--3-------1-1--1--1-------x-x--x--x-------|
G|--4-4--4--4-------4-4--4--4-------0-0--0--0-------2-2--2--2-------|
D|--4-4--4--4-------4-4--4--4-------2-2--2--2-------2-2--2--2---0---|
A|--2-2--2--2---0-------------------2-2--2--2-------x-x--x--x-------|
E|------------------3-3--3--3---2---0-0--0--0---1---2-2--2--2-------|


e|------------9----------------9-------------7----------------------|
B|---------10---------------10-------------7-------------7h10-------|
G|------11---------------11--------------7-------------7------------|
D|-9h12-------------9h12-------------7h9-----------7h9--------------|
A|------------------------------------------------------------------|
E|------------------------------------------------------------------|

************************************

| x   Dead note
| g   Grace note
| (n) Ghost note
| h   Hammer-on
| p   Pull-off
| r   Release
| >   Accented note
| t   Tapping
| b   Bend
| br  Bend release
| pb  Pre-bend
| pbr Pre-bend release
| /   Slide up
| \   Slide down
| ~   Vibrato
| s   Slap
| P   Pop
| PM  Palm mute
| TR  Trill
| N   Tremolo

************************************

            
            
Suggest correction
Creating personal tab
Creating personal tab
You can edit any tab online and save it as your Personal.

You can edit, replace or remove any tab part or add personal notes – all changes will be seen only by you.

Personal tabs can be accessed anytime from any device, even offline.
Learn more »
Give kudos to tab author, rate the tab!
1 2 3 4 5
comments
print report bad tab
guest
You may want to rate the tab now too:
select rating
Wanna post a correction for this tab? Suggest correction