Oops, an error
Loading. Please wait.

Hazey Stripped Bass Tab

19 views 19 this week
no commentswrite comment
1 2 3 4 5
3 more votes to show rating
add to favorites
launch autoscroll
font size
0
reset
guitar tuner
Autoscroll
slow
fast
+/-
esc
set tempo
stop
Help us to improve Ultimate-Guitar.com Take our survey!
×
Author
Difficulty
intermediate
This is the tab of the "stripped" version of Hazey, not the studio/album one, which doesn't have a bass.
It's also the version of Hazey they always play live.


[VERSE 1]

G|-----------------------------------------------------------------------------------------------|
D|-----------------------------------------------------------------------------------------------|
A|------------10--10--10----------8-8-10--10--10----------8-8-10--10--10-----8----8-8-10--10--10-|
E|--------------------------10-10----------------------------------------------10----------------|

G|----------------------------------------------------------------------------------------------------------|
D|---10-8------------------------------------------------------------------10/12\10-8-----------------------|
A|-------11-8-10--10--10----------8-8-10--10--10----------8-8-10--10--10--------------11-8----10-10--10--10-|
E|-8------------------------------------------------10-10---------------------------------------------------|

G|--------------------------------------------------------------------------------------------|
D|----8----------------------------------------------------8----------------------------------|
A|-10---------10--10--10----------8-8-10--10--10-10-----10------------------------------------|
E|--------------------------10-10-----------------------------10--10--10--------------8--8--8-|

G|--------------------------------------------------------------------------------------------|
D|---10-8--------------------------------------------------8----------------------------------|
A|-------11-8-10--10--10----------8-8-10--10--10-10-----10------------------------------------|
E|-8-----------------------10-10-----------------------------10--10--10----------6-6-8-------|

G|--------------------------------------------------------------------------------------------|
D|---------------------------------------------------------8----------------------------------|
A|------------10--10--10----------8-8-10--10--10-10-----10------------------------------------|
E|--------------------------10-10-----------------------------10--10--10--------------8--8--8-|


[CHORUS 1]

G|--------------------------------------------------------------------------------------------|
D|---------------------------------------------------------8----------------------------------|
A|--------8-8-10--10--10----------8-8-10--10--10-10-----10------------------------------------|
E|--------------------------10-10-----------------------------10--10--10--------------8--8--8-|

G|--------------------------------------------------------------------------------------------|
D|---------------------------------------------------------8-------------12-12----------------|
A|--------8-8-10--10--10----------8-8-10--10--10-10-----10---------------------13-------------|
E|--------------------------10-10-----------------------------10--10--10----------6-6-8--8--8-|

G|--------------------------------------------------------------------------------------------|
D|-12-12-10------------------------------------------------8----------------------------------|
A|---------13-13-10--10--10-------8-8-10--10--10-10-----10------------------------------------|
E|--------------------------10-10-----------------------------10--10--10----------6-6-8--8--8-|

G|--------------------------------------------------------------------------------------------|
D|--8------------------------------------------------------8----------------------------------|
A|----11-11-8-10--10--10----------8-8-10--10--10--10-10-10------------------------------------|
E|--------------------------10-10-----------------------------10--10--10------5-5-6-6-8--8--8-|

G|------------------------------------------------------------------------------------------------|
D|-12-12-10-10-10----------------------------------------------8----------------------------------|
A|----------------8-10--10--10--------8-8-10--10--10-10-----10------------------------------------|
E|------------------------------10-10-----------------------------10--10--10--------------8--8--8-|


[BRIDGE]

(Play this part with a lot of dead notes)

G|-------10-10-12--10-----10--------------------------10-12--10-----12--10--------|
D|---------------------12-----12--10-12--10--8-10--8------------12---------12-----|
A|-----------------------------------------------------------------------------10-|
E|--------------------------------------------------------------------------------|

G|-------10-10-12--10-----10--------------------------10-12--10-----12--10--------|
D|-12-12---------------12-----12--10-12--10--8-10--8-------------12---------12-10-|
A|--------------------------------------------------------------------------------|
E|--------------------------------------------------------------------------------|

G|-------------12--10-----10--------------------------10-12--10-----12--10--------|
D|-10/12\10-8----------12-----12--10-12--10--8-10--8------------12---------12-----|
A|-----------10----------------------------------------------------------------10-|
E|--------------------------------------------------------------------------------|

G|-------10-10-12--10-----10--------------------------10-12--10-----12--10--------|
D|-12-12---------------12-----12--10-12--10--8-10--8-------------12---------12-10-|
A|--------------------------------------------------------------------------------|
E|--------------------------------------------------------------------------------|

G|----------10-12--10-----10--------------------------10-12--10-----12--10--------|
D|-12-10-12------------12-----12--10-12--10--8-10--8-------------12---------12-10-|
A|--------------------------------------------------------------------------------|
E|--------------------------------------------------------------------------------|


[CHORUS 2]

G|-----------------------------------------------------------------------------------------------|
D|-10/12\10-8-------------------------------------------------8----------------------------------|
A|------------11-8-10--10--10--------8-8-10--10--10-10-----10------------------------------------|
E|-----------------------------10-10-----------------------------10--10--10----------6-6-8--8--8-|

G|-----------------------------------------------------------------------------------------------|
D|-12-12-10-10-10---------------------------------------------8----------------------------------|
A|---------------8-10--10--10--------8-8-10--10--10-10-----10------------------------------------|
E|------------------------------10-10-----------------------------10--10--10---------6-6-8--8--8-|

G|-----------------------------------------------------------------------------------------------|
D|------------------------------------------------------------8----------------------------------|
A|------11-10-10-8-10--10--10--------8-8-10--10--10-10-----10------------------------------------|
E|----------------------------------------------------------------10--10--10---------6-6-8--8--8-|

G|-----------------------------------------------------------------------------------------------|
D|------------------------------------------------------------8----------------------------------|
A|-------------8-8-10--10--10--------8-8-10--10--10-10-----10------------------------------------|
E|------------------------------10-10-----------------------------10--10--10---------6-6-8--8--8-|


[OUTRO]

G|-----------------------------------------------------------------------------------------------|
D|-10-12-10-8--------------------------------------------------8---------------------------------|
A|------------11-8-10--10--10--------8-8-10--10--10-10-----10------------------------------------|
E|------------------------------10-10-----------------------------10--10--10---------6-6-8--8--8-|

G|-----------------------------------------------------------------------------------------------------|
D|-------8----------------------------------------------------8----------------------------------------|
A|---------11-11-8-10--10--10--------8-8-10--10--10-10-----10------------------------------------------|
E|------------------------------10-10-----------------------------10--10--10-------6-----8--8--8-8---6-|


************************************

| /   Slide up
| \   Slide down

************************************
Suggest correction
Give kudos to tab author, rate the tab!
1 2 3 4 5
comments
print report bad tab
guest
You may want to rate the tab now too:
select rating
Wanna post a correction for this tab? Suggest correction