Oops, an error
Loading. Please wait.

Poplar St tab

version 1
version 1

Whole song

  • This sounds pretty accurate to me. This was made j... Show more
11,722 views 270 this week
no commentswrite comment
1 2 3 4 5
x 11
add to favorites
×
Save as Personal and add changes to this tab that will be seen only by you. Learn more ›
×
You can save this tab as Personal to edit and correct it or add notes. All changes will be seen only by you. Learn more »
launch autoscroll
font size
0
reset
how to read this tab
guitar tuner
edit
Autoscroll
slow
fast
+/-
esc
set tempo
stop
About this tab version
This sounds pretty accurate to me. This was made just by listening to the song and transcribing it down to here. Was this info helpful? Yes No
Poplar St. by Glass Animals
Off their new record How To Be A Human Being


[Intro]

e|-------------------------------------------------------------------------|
B|-------------------------------------------------------------------------|
G|-------7h9p7---7-----7---7-----7-------7---7-----------------------------|
D|----9--------9-----7-----7-------------7---7-----7---------9-------------|
A|-----------------9-----9-----9---------9-------9---------11--------------|
E|-7-------------------------------10----10----10----10--12----12----------|(x2)


[Verse 1] 

When I was a boy...
e|---------------------------------------------------------------------------|
B|---------------------------------------------------------------------------|
G|-------7h9p7---7-----7---7-----7------7--7--------------9h11p9-------------|
D|-----9-------9-----7---7-----7--------7--7--------7------------12-9--------|
A|-----------------9--------------------9---------9---9----------------------|
E|---7----------------------------10----10------10---------------------------|

e|---------------------------------------------------------------------------|
B|---------------------------------------------------------------------------|
G|-------7h9p7---7-----7---7-----7------7--7---------------------------------|
D|-----9-------9-----7---7-----7--------7--7--------7---------9--------------|
A|-----------------9--------------------9---------9---9----10---10-----------|
E|---7----------------------------10----10------10-------12------------------|

e|---------------------------------------------------------------------------|
B|---------------------------------------------------------------------------|
G|-------7h9p7---7-----7---7-----7------7--7--------------9h11p9-------------|
D|-----9-------9-----7---7-----7--------7--7--------7------------12-9--------|
A|-----------------9--------------------9---------9---9----------------------|
E|---7----------------------------10----10------10---------------------------|

e|---------------------------------------------------------------------------|
B|---------------------------------------------------------------------------|
G|-------7h9p7---7-----7---7-----7------7--7---------------------------------|
D|-----9-------9-----7---7-----7--------7--7--------7---------9--------------|
A|-----------------9--------------------9---------9---9----10---10-----------|
E|---7----------------------------10----10------10-------12------------------|

e|---------------------------------------------------------------------------|
B|---------------------------------------------------------------------------|
G|-------7h9p7---7-----7---7-----7--11------7-------7------------------------|
D|-----9-------9-----7---7-----7----11----9---9---9---9----------------------|
A|-----------------9----------------9---10------10---------------------------|
E|---7-----------------------------------------------------------------------|


[Chorus] 

I feel like a new man...

e|---------------------------------------------------------------------------|
B|---------------------------------------------------------------------------|
G|-------7h9p7---7-----7---7-----7------7--7---------------------------------|
D|-----9-------9-----7---7-----7--------7--7--------7---------9--------------|
A|-----------------9--------------------9---------9---9----10---10-----------|
E|---7----------------------------10----10------10-------12------------------|

e|---------------------------------------------------------------------------|
B|---------------------------------------------------------------------------|
G|-------7h9p7---7-----7---7-----7------7--7--------------9h11p9-------------|
D|-----9-------9-----7---7-----7--------7--7--------7------------12-9--------|
A|-----------------9--------------------9---------9---9----------------------|
E|---7----------------------------10----10------10---------------------------|

e|---------------------------------------------------------------------------|
B|---------------------------------------------------------------------------|
G|-------7h9p7---7-----7---7-----7------7--7---------------------------------|
D|-----9-------9-----7---7-----7--------7--7--------7---------9--------------|
A|-----------------9--------------------9---------9---9----10---10-----------|
E|---7----------------------------10----10------10-------12------------------|

e|---------------------------------------------------------------------------|
B|---------------------------------------------------------------------------|
G|-------7h9p7---7-----7---7-----7--11------7-------7------------------------|
D|-----9-------9-----7---7-----7----11----9---9---9---9----------------------|
A|-----------------9----------------9---10------10---------------------------|
E|---7-----------------------------------------------------------------------|


[Verse 2]

e|---------------------------------------------------------------------------|
B|---------------------------------------------------------------------------|
G|-------7h9p7---7-----7---7-----7------7--7---------------------------------|
D|-----9-------9-----7---7-----7--------7--7--------7---------9--------------|
A|-----------------9--------------------9---------9---9----10---10-----------|
E|---7----------------------------10----10------10-------12------------------|

e|------7-------7-------7-------7-------6-------6-------6--------------------|
B|---------------------------------------------------------------------------|
G|----7---7---7---7---7---7---7---7---6---6---6---6---6---6------------------|
D|--9-------9-------9-------9-------8-------8-------8-------8----------------|
A|---------------------------------------------------------------------------|
E|---------------------------------------------------------------------------|

e|---------------------------------------------------------------------------|
B|---------------------------------------------------------------------------|
G|------6------6-------6-------6--------7--------7--------7--------7---------|
D|----8--8---8---8---8---8---8---8----9---9----9---9----9---9----9---9-------|
A|--9------9-------9-------9-------10-------10-------10-------10-------------|
E|---------------------------------------------------------------------------|

e|---------------------------------------------------------------------------|
B|------7---5---7-------7---5---7--------------------------------------------|
G|----7---7---7---7---7---7---7---7------7--------7--------7--------7--------|
D|--9---------------9------------------9---9----9---9----9---9----9---9------|
A|----------------------------------10-------10-------10-------10------------|
E|---------------------------------------------------------------------------|

e|---------------------------------------------------------------------------|
B|------7---5---7-------7---5---7----------------17b-17b-15------------------|
G|----7---7---7---7---7---7---7---7-------------------------16---------------|
D|--9---------------9---------------9----------------------------------------|
A|---------------------------------------------------------------------------|
E|---------------------------------------------------------------------------|


[Chorus 2]

e|---------------------------------------------------------------------------|
B|---------------------------------------------------------------------------|
G|-------7h9p7---7-----7---7-----7------7--7---------------------------------|
D|-----9-------9-----7---7-----7--------7--7--------7---------9--------------|
A|-----------------9--------------------9---------9---9----10---10-----------|
E|---7----------------------------10----10------10-------12------------------|

e|---------------------------------------------------------------------------|
B|---------------------------------------------------------------------------|
G|-------7h9p7---7-----7---7-----7--11------7-------7------------------------|
D|-----9-------9-----7---7-----7----11----9---9---9---9----------------------|
A|-----------------9----------------9---10------10---------------------------|
E|---7-----------------------------------------------------------------------|

e|---------------------------------------------------------------------------|
B|---------------------------------------------------------------------------|
G|-------7h9p7---7-----7---7-----7------7--7---------------------------------|
D|-----9-------9-----7---7-----7--------7--7--------7---------9--------------|
A|-----------------9--------------------9---------9---9----10---10-----------|
E|---7----------------------------10----10------10-------12------------------|

e|---------------------------------------------------------------------------|
B|---------------------------------------------------------------------------|
G|-------7h9p7---7-----7---7-----7--11------7-------7------------------------|
D|-----9-------9-----7---7-----7----11----9---9---9---9----------------------|
A|-----------------9----------------9---10------10---------------------------|
E|---7-----------------------------------------------------------------------|


[Bridge] 

There's some overlay in this part so I just have one of the parts here, second part may 
be coming soon! 

e|---------------------------------------------------------------------------|
B|---------------------------------------------------------------------------|
G|-------7h9p7---7-----7---7-----7----6--6-------9-------9-------9-----------|
D|-----9-------9-----7---7-----7------8----8---8---8---8---8---8---8---------|
A|-----------------9------------------9------9-------9-------9---------------|
E|---7-----------------------------------------------------------------------|

e|---------------------------------------------------------------------------|
B|---------------------------------------------------------------------------|
G|--------7--------7--------7--------7---------------------------------------|
D|------9---9----9---9----9---9----9---9-------------------------------------|
A|---10-------10-------10-------10-------------------------------------------|
E|---------------------------------------------------------------------------|

e|------7-----7-----7-----7-----6-------6-------6-------6--------------------|
B|---------------------------------------------------------------------------|
G|----7----9------7----9------6---6---6---6---6---6---6---6------------------|
D|--9-----------9-----------8-------8-------8-------8------------------------|
A|---------------------------------------------------------------------------|
E|---------------------------------------------------------------------------|

e|---------------------------------------------------------------------------|
B|---------------------------------------------------------------------------|
G|------6------6-------6-------6--------7--------7--------7--------7---------|
D|----8--8---8---8---8---8---8---8----9---9----9---9----9---9----9---9-------|
A|--9------9-------9-------9-------10-------10-------10-------10-------------|
E|---------------------------------------------------------------------------|

e|------7-----7-----7-----7-----6-------6-------6-------6--------------------|
B|---------------------------------------------------------------------------|
G|----7----9------7----9------6---6---6---6---6---6---6---6------------------|
D|--9-----------9-----------8-------8-------8-------8------------------------|
A|---------------------------------------------------------------------------|
E|---------------------------------------------------------------------------|


[Final Chorus]

e|---------------------------------------------------------------------------|
B|---------------------------------------------------------------------------|
G|-------7h9p7---7-----7---7-----7------7--7---------------------------------|
D|-----9-------9-----7---7-----7--------7--7--------7---------9--------------|
A|-----------------9--------------------9---------9---9----10---10-----------|
E|---7----------------------------10----10------10-------12------------------|

e|---------------------------------------------------------------------------|
B|---------------------------------------------------------------------------|
G|-------7h9p7---7-----7---7-----7--11------7-------7------------------------|
D|-----9-------9-----7---7-----7----11----9---9---9---9----------------------|
A|-----------------9----------------9---10------10---------------------------|
E|---7-----------------------------------------------------------------------|

e|---------------------------------------------------------------------------|
B|---------------------------------------------------------------------------|
G|-------7h9p7---7-----7---7-----7------7--7---------------------------------|
D|-----9-------9-----7---7-----7--------7--7--------7---------9--------------|
A|-----------------9--------------------9---------9---9----10---10-----------|
E|---7----------------------------10----10------10-------12------------------|

e|---------------------------------------------------------------------------|
B|---------------------------------------------------------------------------|
G|-------7h9p7---7-----7---7-----7--11------7-------7------------------------|
D|-----9-------9-----7---7-----7----11----9---9---9---9----------------------|
A|-----------------9----------------9---10------10---------------------------|
E|---7---------------------------------------------------7-------------------|

No guitar in the outro.



************************************

| h  Hammer-on
| p  Pull-off
| b  Bend

************************************
Suggest correction
Creating personal tab
Creating personal tab
You can edit any tab online and save it as your Personal.

You can edit, replace or remove any tab part or add personal notes – all changes will be seen only by you.

Personal tabs can be accessed anytime from any device, even offline.
Learn more »
comments
print report bad tab
guest
You may want to rate the tab now too:
select rating
Wanna post a correction for this tab? Suggest correction