Oops, an error
Loading. Please wait.

Pork Soda tab

version 2
version 2

Whole song

  • There's no real guitar in the song, but transcribe... Show more
  • Based off the live version of the song - Pork Soda... Show more
706 views 36 this week
no commentswrite comment
1 2 3 4 5
2 more votes to show rating
add to favorites
×
Save as Personal and add changes to this tab that will be seen only by you. Learn more ›
×
You can save this tab as Personal to edit and correct it or add notes. All changes will be seen only by you. Learn more »
launch autoscroll
font size
0
reset
how to read this tab
guitar tuner
edit
Autoscroll
slow
fast
+/-
esc
set tempo
stop
Author
[Intro]
*clapping + chorus*
 
 Bass - Pattern 1 (originally played on keyboard)
G|----------------------------------------------------------------------------|
D|----------------------------------------------------------------------------|
A|-9----7-12---12-11------9--7------------------------------------------------|
E|----9--------------12--------9--7---5-4-0-----------------------------------|



[Verse 1])
 "Somewhere in South End..."

 Bass - Pattern 2
G|---------------------------------------------------------------------------|
D|---------------------------------------------------------------------------|
A|-9----7-9-----7-9-----7-9-----12-11----------------------------------------| x2
E|----9-------9-------9------------------------------------------------------|

 "Up past the prison..." 
 *clapping starts*

[Pre-Chorus]
 "Why can't we laugh now..." 
 Bass - Pattern 2 x2

 Guitar 1
e|---------------------------------------------------------------------------|
B|---------------------------------------------------------------------------|
G|---------------------------------------------------------------------------|
D|---------------------------------------------------------------------------| x6
A|---------------------------------------------------------------------------|
E|-2---2--2--2-2-2-2-5-------------------------------------------------------|

*just bass* "Let's climb the cliff edge and jump again. Whoo!"

[Chorus 1] 
 Bass - Pattern 1

 Chords - (optional)
F#m                       E
Pineapples are in my head
    B                     F#m
Got nobody 'cos I’m brain dead

[Verse 2] 
"Somebody said I'm a freaking slum..."
 Bass - Pattern 2

 Guitar 1
e|------------------------------------------------------------------------------|
B|-11--11-9h11--11----11--11--9--9----14--14--13h14--14----16--16--14h16--16----|
G|------------------------------------------------------------------------------|
D|------------------------------------------------------------------------------|
A|------------------------------------------------------------------------------|
E|------------------------------------------------------------------------------|

 "...maybe your freaky scum"
e|------------------------------------------------------------------------------|
B|-11--11-9h11--11----11--11-9h11--11----14--14--13h14--14----16--16--14h16--16-|
G|------------------------------------------------------------------------------|
D|------------------------------------------------------------------------------|
A|------------------------------------------------------------------------------|
E|------------------------------------------------------------------------------|

[Interlude]
 "Stop" - *clapping starts* x1

 Bass - Pattern 3
G|---------------------------------------------------------------------------|
D|---------------------------------------------------------------------------|
A|-9--9--7h9--9----7--7--5h7--7----12--12--10h12--12----7--7--5h7--7---------| x2 until Guitar 2 - then repeat
E|---------------------------------------------------------------------------|

 Guitar 2 comes in - Interlude pattern
e|---------------------------------------------------------------------------|
B|---------------------------------------------------------------------------|
G|-11--9--11----9----11--9--11----9----11--9--11----9----11--9--11----9------|
D|-----------11----------------11----------------11----------------11--------|
A|---------------------------------------------------------------------------| x1 until Guitar 1 - then repeat
E|---------------------------------------------------------------------------|


 Guitar 1 comes in - Interlude pattern
e|-----------------------------------------------------------------------------------------------|
B|-----10---12--10-9h10---------10---12--10-9h10---------10---12--10-9h10---------10---10h12s14--|
G|---11--11-------------10----11--11-------------10----11--11-------------10----11--11-----------|
D|-11-----------------------11-----------------------11-----------------------11-----------------|repeat
A|-----------------------------------------------------------------------------------------------|till end
E|-----------------------------------------------------------------------------------------------|

[Chorus 2]
 Guitar 1 - Interlude pattern
 Guitar 2 - Interlude pattern
 Chords(optional) - Same as chorus 1

 Bass - Pattern 4
G|---------------------------------------------------------------------------|
D|---------------------------------------------------------------------------|
A|-9--9--7h9--9----7--7--5h7--7----12--12--10h12--12----14--14--12h14--14----|
E|---------------------------------------------------------------------------|

[Verse 3]
"5000 footsteps in your wet dress..."
 Bass - Pattern 3 then Pattern 4
 Guitar 1 - Interlude pattern with a slight variation (listen to song)
 Guitar 2 - Interlude pattern

[Verse 4]
"I know I'm no sweet prince of love..."
 Bass - Pattern 3
 Guitar 2 - Same as interlude

 Guitar 1
e|-----------------------------------------------------------------------------------------------------------|
B|-----------------------------------------------------------------------------------------------------------|
G|-----------------------------------------------------------------------------------------------------------|
D|-------------------------------------------------------------------------------------4--2------------------|
A|------------------------------------------------------------------------------------------4--2-------------|
E|-2---2--2--2-2-2-2-5----2---2--2--2-2-2-2-5----2---2--2--2-2-2-2-5----2---2--2-2-2-2----------5------------|

"Why don't I say it then" *All parts stop* "I want you all the time"

[Pre-Chorus] - All parts remain the same as Verse 4

[Chorus 3]
 Bass - Pattern 4
 Guitar 2 - Interlude pattern
 Guitar 1 - Play chorus chords until end of song (played on piano in song)
F#m                       E
Pineapples are in my head
    B                     F#m
Got nobody 'cos I’m brain dead

[Outro]
 Bass - Pattern 3 x3 then Pattern 4 - repeat
 Guitar 2 - Chords
 Guitar 1 - solo



************************************

| x   Dead note
| g   Grace note
| (n) Ghost note
| h   Hammer-on
| p   Pull-off
| r   Release
| >   Accented note
| t   Tapping
| b   Bend
| br  Bend release
| pb  Pre-bend
| pbr Pre-bend release
| /   Slide up
| \   Slide down
| ~   Vibrato
| s   Slap
| P   Pop
| PM  Palm mute
| TR  Trill
| N   Tremolo

************************************

            
            
Suggest correction
Creating personal tab
Creating personal tab
You can edit any tab online and save it as your Personal.

You can edit, replace or remove any tab part or add personal notes – all changes will be seen only by you.

Personal tabs can be accessed anytime from any device, even offline.
Learn more »
Give kudos to tab author, rate the tab!
1 2 3 4 5
comments
print report bad tab
guest
You may want to rate the tab now too:
select rating
Wanna post a correction for this tab? Suggest correction