Oops, an error
Loading. Please wait.

Toes bass

1,903 views 51 this week
no commentswrite comment
1 2 3 4 5
1 last vote to show rating
add to favorites
×
Save as Personal and add changes to this tab that will be seen only by you. Learn more ›
×
You can save this tab as Personal to edit and correct it or add notes. All changes will be seen only by you. Learn more »
launch autoscroll
font size
0
reset
guitar tuner
edit
Autoscroll
slow
fast
+/-
esc
set tempo
stop
Author
[Intro]

G|-----------------------------------------------------------------------------------------|
D|-----------------------------------------------------------------------------------------|
A|-11--------------------11--------------------11--------------------11--------------------|
E|-----------------------------------------------------------------------------------------|


[Verse 1]

G|-----------------------------------------------------------------------------------------|
D|-----------------------------------------------------------------------------------------|
A|-11--------------------9---------------------14--------------------11--------------------|
E|-----------------------------------------------------------------------------------------|

G|-----------------------------------------------------------------------------------------|
D|------------------------------------------------------------------------------13---------|
A|-11--------------------9---------------------14---16-14-16-14-11---11-----11-------------|
E|-----------------------------------------------------------------------------------------|

G|-----------------------------------------------------------------------------------------|
D|-----------------------------------------------------------------------------------------|
A|-11--------------------9---------------------14--------------------11--------------------|
E|-----------------------------------------------------------------------------------------|

G|-----------------------------------------------------------------------------------------|
D|-----------------------------------------------------------------------------------------|
A|-11--------------------9---------------------14--------16-14-16-14-11-----11--9----------|
E|-----------------------------------------------------------------------------------------|

G|-----------------------------------------------------------------------------------------|
D|-----------------------------------------------------------------------------------------|
A|-11--------------------9---------------------14--------------------11--------------------|
E|-----------------------------------------------------------------------------------------|

G|-----------------------------------------------------------------------------------------|
D|-----------------------------------------------------------------------------------------|
A|-11--------------------9---------------------14--------------------11--------------------|
E|-----------------------------------------------------------------------------------------|


[Chorus 1]

G|-----------------------------------------------------------------------------------------|
D|-----------------------------------------------------------------------------------------|
A|-11--------------------9---------------------14--------------------11--------------------|
E|-----------------------------------------------------------------------------------------|

G|-----------------------------------------------------------------------------------------|
D|-----------------------------------------------------------------------------------------|
A|-11--------------------9---------------------14---16-14-16-14-11---11-----11--9----------|
E|-----------------------------------------------------------------------------------------|

G|-----------------------------------------------------------------------------------------|
D|-----------------------------------------------------------------------------------------|
A|-11--------------------9---------------------14--------------------11---------11/13\11---|
E|-----------------------------------------------------------------------------------------|

G|-----------------------------------------------------------------------------------------|
D|-----------------------------------------------------------------------------------------|
A|-11--------------------9---------------------14---16-14-16-14-11---11--------------------|
E|-----------------------------------------------------------------------------------------|


[Verse 2]

G|-----------------------------------------------------------------------------------------|
D|-----------------------------------------------------------------------------------------|
A|-11--------------------9---------------------14--------------------11--------------------|
E|-----------------------------------------------------------------------------------------|

G|-----------------------------------------------------------------------------------------|
D|-----------------------------------------------------------------------------------------|
A|-11--------------------9---------------------14--------16-14-16-14-11-----11--9----------|
E|-----------------------------------------------------------------------------------------|

G|-----------------------------------------------------------------------------------------|
D|-----------------------------------------------------------------------------------------|
A|-11--------------------9---------------------14--------------------11--------------------|
E|-----------------------------------------------------------------------------------------|

G|-----------------------------------------------------------------------------------------|
D|-----------------------------------------------------------------------------------------|
A|-11--------------------9---------------------14---16-14-16-14-11---11--------------------|
E|-----------------------------------------------------------------------------------------|


[Chorus 2]

G|-----------------------------------------------------------------------------------------|
D|-----------------------------------------------------------------------------------------|
A|-11--------------------9---------------------14--------------------11--------------------|
E|-----------------------------------------------------------------------------------------|

G|-----------------------------------------------------------------------------------------|
D|-----------------------------------------------------------------------------------------|
A|-11--------------------9---------------------14---16-14-16-14-11---11---------9----------|
E|-----------------------------------------------------------------------------------------|

G|-----------------------------------------------------------------------------------------|
D|-----------------------------------------------------------------------------------------|
A|-11--------------------9---------------------14--------------------11---------11/13\11---|
E|-----------------------------------------------------------------------------------------|

G|-----------------------------------------------------------------------------------------|
D|-----------------------------------------------------------------------------------------|
A|-11--------------------9---------------------14---16-14-16-14-11---11-----11-------------|
E|-----------------------------------------------------------------------------------------|


[Verse 3]

G|-----------------------------------------------------------------------------------------|
D|-----------------------------------------------------------------------------------------|
A|-11--------------------9---------------------14--------------------11--------------------|
E|-----------------------------------------------------------------------------------------|

G|-----------------------------------------------------------------------------------------|
D|------------------------------------------------------------------------------13---------|
A|-11--------------------9---------------------14---16-14-16-14-11---11-----11-------------|
E|-----------------------------------------------------------------------------------------|

G|-----------------------------------------------------------------------------------------|
D|-----------------------------------------------------------------------------------------|
A|-11--------------------9---------------------14--------------------11---------11/13\11---|
E|-----------------------------------------------------------------------------------------|

G|-----------------------------------------------------------------------------------------|
D|-----------------------------------------------------------------------------------------|
A|-11--------------------9---------------------14---16-14-16-14-11---11--------------------|
E|-----------------------------------------------------------------------------------------|


[Chorus 3]

G|-----------|-----------------------------------------------------------------------------------------|
D|-----------|-----------------------------------------------------------------------------------------|
A|-16--16-14-|-11--------------------9---------------------14--------------------11--------------------|
E|-----------|-----------------------------------------------------------------------------------------|

G|-----------------------------------------------------------------------------------------|
D|-----------------------------------------------------------------------------------------|
A|-11--------------------9---------------------14---16-14-16-14-11---11-----11--9----------|
E|-----------------------------------------------------------------------------------------|

G|-----------------------------------------------------------------------------------------|
D|-----------------------------------------------------------------------------------------|
A|-11--------------------9---------------------14--------------------11----------16--16-14-|
E|-----------------------------------------------------------------------------------------|

G|-----------------------------------------------------------------------------------------|
D|-----------------------------------------------------------------------------------------|
A|-11--------------------9---------------------14/16-------16---11---11--------------------|
E|-----------------------------------------------------------------------------------------|


[Outro]

G|-----------------------------------------------------------------------------------------|
D|-----------------------------------------------------------------------------------------|
A|-11--------------------9---------------------14--------------------11--------------------|
E|-----------------------------------------------------------------------------------------|

G|-----------------------------------------------------------------------------------------|
D|-----------------------------------------------------------------------------------------|
A|-11--------------------9---------------------14---16-14-16-14-11---11--------------------|
E|-----------------------------------------------------------------------------------------|

G|-----------------------------------------------------------------------------------------|
D|-----------------------------------------------------------------------------------------|
A|-11--------------------9---------------------14--------------------11--------------------|
E|-----------------------------------------------------------------------------------------|

G|-----------------------------------------------------------------------------------------|
D|-----------------------------------------------------------------------------------------|
A|-11--------------------9---------------------14---16-14-16-14-11---11--------------------|
E|-----------------------------------------------------------------------------------------|



************************************

| /  Slide up
| \  Slide down

************************************

            
            
Suggest correction
Creating personal tab
Creating personal tab
You can edit any tab online and save it as your Personal.

You can edit, replace or remove any tab part or add personal notes – all changes will be seen only by you.

Personal tabs can be accessed anytime from any device, even offline.
Learn more »
Give kudos to tab author, rate the tab!
1 2 3 4 5
comments
print report bad tab
guest
You may want to rate the tab now too:
select rating
Wanna post a correction for this tab? Suggest correction