Oops, an error
Loading. Please wait.

In This City Bass Tab

4 views 1 this week
no commentswrite comment
1 2 3 4 5
3 more votes to show rating
add to favorites
launch autoscroll
font size
0
reset
guitar tuner
Autoscroll
slow
fast
+/-
esc
set tempo
stop
Help us to improve Ultimate-Guitar.com Take our survey!
×
Author
Difficulty
novice
[Intro] Repeat x2
G|----------------------------------------------------------|
D|----------------------------------------------------------|
A|--7--7-77-5----------------------------------------------| 
E|-------------7--7-7-7-7-7-7\5--5-5-5-3/7---7-7-7-7-7------| 

[Verse] Repeat x4  
G|-----------------------------------------------------------------------------|
D|-----------------------------------------------------------------------------|
A|-/10--101010(these are 10's)-9-----------------------------------------------| 
E|------------------------------------7--7-7-7-7-7-7\5-5-5-5-3/7--7-7-7--7-7---|

[Chorus] x2 
G|----------------------------------------------------------------------------------------------------------|
D|----------------------------------------------------------------------------------------------------------|
A|--7-7-7-7-7-7-7-7-7-7-7-7-5-5-5-5-5-5-5-5-5-5-5-5---------------------------------------------------------| 
E|-------------------------------------------------5-5-5-5-5-5/7-7-7-7-7-7-7\5-5-5-5-5-5-/7-7-7-7-7-7-7-----|

[Intro] Repeat x4
G|----------------------------------------------------------|
D|----------------------------------------------------------|
A|--7--7-77-5----------------------------------------------| 
E|------------7--7-7-7-7-7-7\5--5-5-5-3/7---7-7-7-7-7------| 

[Chorus] x4
G|---------------------------------------------------------------------------|
D|---------------------------------------------------------------------------|
A|--77-777-777-777-755-555-555-555-5-----------------------------------------| 
E|-----------------------------------5-55555/7-777-777\5-55555/7-777-777-----|

[Outro]
G|----------------------------------|
D|----------------------------------|
A|-7-7-x-7-7-7-x--------------------|
E|--------------0(let ring)---------|

And that's it, I'm not sure about that Outro, feel free to improve it :)
Cheers, Vick.

************************************

| /  Slide up
| \  Slide down
| x  Dead note 

************************************
Suggest correction
Give kudos to tab author, rate the tab!
1 2 3 4 5
comments
print report bad tab
guest
You may want to rate the tab now too:
select rating
Wanna post a correction for this tab? Suggest correction