Oops, an error
Loading. Please wait.

Black Nurse tab

217 views 6 this week
no commentswrite comment
1 2 3 4 5
3 more votes to show rating
add to favorites
×
Save as Personal and add changes to this tab that will be seen only by you. Learn more ›
×
You can save this tab as Personal to edit and correct it or add notes. All changes will be seen only by you. Learn more »
launch autoscroll
font size
0
reset
how to read this tab
guitar tuner
edit
Autoscroll
slow
fast
+/-
esc
set tempo
stop
Baritone guitar in drop A tuning.


[Intro]

Rest four bars, then...

B |----------------|----------------|----------------|----------------|
F#|----------------|----------------|----------------|----------------|
D |----------------|----------------|----------------|----------------|
A |----------------|----------------|----------------|----------------|
E |----------------|----------------|3N----------2N--|2N--------------|
A |2N--------------|2N--------------|----------------|----------------|
                                                                        X2
B |----------------|----------------|----------------|----------------|
F#|----------------|----------------|----------------|----------------|
D |----------------|----------------|----------------|----------------|
A |----------------|----------------|----------------|----------------|
E |2N--0N----------|0N--------------|----------------|----------------|
A |----------------|----------------|3N--------------|3N--------------|


[Verse]

B |7-7---------7-7-|--------7-7-----|----7-7---------|7-7---------7-7-|
F#|8-8---------8-8-|--------8-8-----|----8-8---------|8-8---------8-8-|
D |9-9---------9-9-|--------9-9-----|----9-9---------|9-9---------9-9-|
A |9-9---------9-9-|--------9-9-----|----9-9---------|9-9---------9-9-|
E |7-7---------7-7-|--------7-7-----|----7-7---------|7-7---------7-7-|
A |----------------|----------------|----------------|----------------|
   1e+a2e+a3e+a4e+a 1e+a2e+a3e+a4e+a 1e+a2e+a3e+a4e+a 1e+a2e+a3e+a4e+a

B |----5-5---------|5-5---------5-5-|--------5-5-----|----------------|
F#|----6-6---------|6-6---------6-6-|--------6-6-----|--6-6-6---xxx-x-|
D |----7-7---------|7-7---------7-7-|--------7-7-----|--5-5-5---xxx-x-|
A |----7-7---------|7-7---------7-7-|--------7-7-----|--6-6-6---xxx-x-|
E |----5-5---------|5-5---------5-5-|--------5-5-----|--5-5-5---xxx-x-|
A |----------------|----------------|----------------|----------------|
   1e+a2e+a3e+a4e+a 1e+a2e+a3e+a4e+a 1e+a2e+a3e+a4e+a 1e+a2e+a3e+a4e+a

B |7-7---------7-7-|--------7-7-----|----7-7---------|7-7-------7-7-7-|
F#|8-8---------8-8-|--------8-8-----|----8-8---------|8-8-------8-8-8-|
D |9-9---------9-9-|--------9-9-----|----9-9---------|9-9-------9-9-9-|
A |9-9---------9-9-|--------9-9-----|----9-9---------|9-9-------9-9-9-|
E |7-7---------7-7-|--------7-7-----|----7-7---------|7-7-------7-7-7-|
A |----------------|----------------|----------------|----------------|
   1e+a2e+a3e+a4e+a 1e+a2e+a3e+a4e+a 1e+a2e+a3e+a4e+a 1e+a2e+a3e+a4e+a

B |----5-5---------|5-5---------5-5-|--------5-5-----|----------------|
F#|----6-6---------|6-6---------6-6-|--------6-6---xx|--6-6-6---xx6-6-|
D |----7-7---------|7-7---------7-7-|--------7-7---xx|--5-5-5---xx5-5-|
A |----7-7---------|7-7---------7-7-|--------7-7---xx|--6-6-6---xx6-6-|
E |----5-5---------|5-5---------5-5-|--------5-5---xx|--5-5-5---xx5-5-|
A |----------------|----------------|----------------|----------------|
   1e+a2e+a3e+a4e+a 1e+a2e+a3e+a4e+a 1e+a2e+a3e+a4e+a 1e+a2e+a3e+a4e+a


[Chorus]

B |----------------|----------------|----------------|----------------|
F#|----------------|----------------|----------------|----------------|
D |----------------|----------------|----------------|----------------|
A |----------------|----------------|----------------|----------------|
E |----------------|----------------|3N----------2N--|2N--------------|
A |2N--------------|2N--------------|----------------|----------------|
                                                                        X2
B |----------------|----------------|----------------|----------------|
F#|----------------|----------------|----------------|----------------|
D |----------------|----------------|----------------|----------------|
A |----------------|----------------|----------------|----------------|
E |2N--0N----------|0N--------------|----------------|----------------|
A |----------------|----------------|3N--------------|3N--------------|

B |----------------|----------------|
F#|----------------|----------------|
D |----------------|----------------|
A |----------------|----------------|
E |----------------|----------------|
A |0N--------------|0N--------------|


[Verse]

B |7-7---------7-7-|--------7-7-----|----7-7---------|7-7---------7-7-|
F#|8-8---------8-8-|--------8-8-----|----8-8---------|8-8---------8-8-|
D |9-9---------9-9-|--------9-9-----|----9-9---------|9-9---------9-9-|
A |9-9---------9-9-|--------9-9-----|----9-9---------|9-9---------9-9-|
E |7-7---------7-7-|--------7-7-----|----7-7---------|7-7---------7-7-|
A |----------------|----------------|----------------|----------------|
   1e+a2e+a3e+a4e+a 1e+a2e+a3e+a4e+a 1e+a2e+a3e+a4e+a 1e+a2e+a3e+a4e+a

B |----5-5---------|5-5---------5-5-|--------5-5-----|----------------|
F#|----6-6---------|6-6---------6-6-|--------6-6-----|--6-6-6---xxx-x-|
D |----7-7---------|7-7---------7-7-|--------7-7-----|--5-5-5---xxx-x-|
A |----7-7---------|7-7---------7-7-|--------7-7-----|--6-6-6---xxx-x-|
E |----5-5---------|5-5---------5-5-|--------5-5-----|--5-5-5---xxx-x-|
A |----------------|----------------|----------------|----------------|
   1e+a2e+a3e+a4e+a 1e+a2e+a3e+a4e+a 1e+a2e+a3e+a4e+a 1e+a2e+a3e+a4e+a

B |7-7---------7-7-|--------7-7-----|----7-7---------|7-7-------7-7-7-|
F#|8-8---------8-8-|--------8-8-----|----8-8---------|8-8-------8-8-8-|
D |9-9---------9-9-|--------9-9-----|----9-9---------|9-9-------9-9-9-|
A |9-9---------9-9-|--------9-9-----|----9-9---------|9-9-------9-9-9-|
E |7-7---------7-7-|--------7-7-----|----7-7---------|7-7-------7-7-7-|
A |----------------|----------------|----------------|----------------|
   1e+a2e+a3e+a4e+a 1e+a2e+a3e+a4e+a 1e+a2e+a3e+a4e+a 1e+a2e+a3e+a4e+a

B |----5-5---------|5-5---------5-5-|--------5-5-----|----------------|
F#|----6-6---------|6-6---------6-6-|--------6-6---xx|--6-6-6---xx6-6-|
D |----7-7---------|7-7---------7-7-|--------7-7---xx|--5-5-5---xx5-5-|
A |----7-7---------|7-7---------7-7-|--------7-7---xx|--6-6-6---xx6-6-|
E |----5-5---------|5-5---------5-5-|--------5-5---xx|--5-5-5---xx5-5-|
A |----------------|----------------|----------------|----------------|
   1e+a2e+a3e+a4e+a 1e+a2e+a3e+a4e+a 1e+a2e+a3e+a4e+a 1e+a2e+a3e+a4e+a


[Chorus]

B |----------------|----------------|----------------|----------------|
F#|----------------|----------------|----------------|----------------|
D |----------------|----------------|----------------|----------------|
A |----------------|----------------|----------------|----------------|
E |----------------|----------------|3N----------2N--|2N--------------|
A |2N--------------|2N--------------|----------------|----------------|
                                                                        X2
B |----------------|----------------|----------------|----------------|
F#|----------------|----------------|----------------|----------------|
D |----------------|----------------|----------------|----------------|
A |----------------|----------------|----------------|----------------|
E |2N--0N----------|0N--------------|----------------|----------------|
A |----------------|----------------|3N--------------|3N--------------|                                 

Rest four bars, then...


[Verse]

B |7-7---------7-7-|--------7-7-----|----7-7---------|7-7---------7-7-|
F#|8-8---------8-8-|--------8-8-----|----8-8---------|8-8---------8-8-|
D |9-9---------9-9-|--------9-9-----|----9-9---------|9-9---------9-9-|
A |9-9---------9-9-|--------9-9-----|----9-9---------|9-9---------9-9-|
E |7-7---------7-7-|--------7-7-----|----7-7---------|7-7---------7-7-|
A |----------------|----------------|----------------|----------------|
   1e+a2e+a3e+a4e+a 1e+a2e+a3e+a4e+a 1e+a2e+a3e+a4e+a 1e+a2e+a3e+a4e+a

B |----5-5---------|5-5---------5-5-|--------5-5-----|----------------|
F#|----6-6---------|6-6---------6-6-|--------6-6-----|--6-6-6---xxx-x-|
D |----7-7---------|7-7---------7-7-|--------7-7-----|--5-5-5---xxx-x-|
A |----7-7---------|7-7---------7-7-|--------7-7-----|--6-6-6---xxx-x-|
E |----5-5---------|5-5---------5-5-|--------5-5-----|--5-5-5---xxx-x-|
A |----------------|----------------|----------------|----------------|
   1e+a2e+a3e+a4e+a 1e+a2e+a3e+a4e+a 1e+a2e+a3e+a4e+a 1e+a2e+a3e+a4e+a

B |7-7---------7-7-|--------7-7-----|----7-7---------|7-7-------7-7-7-|
F#|8-8---------8-8-|--------8-8-----|----8-8---------|8-8-------8-8-8-|
D |9-9---------9-9-|--------9-9-----|----9-9---------|9-9-------9-9-9-|
A |9-9---------9-9-|--------9-9-----|----9-9---------|9-9-------9-9-9-|
E |7-7---------7-7-|--------7-7-----|----7-7---------|7-7-------7-7-7-|
A |----------------|----------------|----------------|----------------|
   1e+a2e+a3e+a4e+a 1e+a2e+a3e+a4e+a 1e+a2e+a3e+a4e+a 1e+a2e+a3e+a4e+a

B |----5-5---------|5-5---------5-5-|--------5-5-----|----------------|
F#|----6-6---------|6-6---------6-6-|--------6-6---xx|--6-6-6---xx6-6-|
D |----7-7---------|7-7---------7-7-|--------7-7---xx|--5-5-5---xx5-5-|
A |----7-7---------|7-7---------7-7-|--------7-7---xx|--6-6-6---xx6-6-|
E |----5-5---------|5-5---------5-5-|--------5-5---xx|--5-5-5---xx5-5-|
A |----------------|----------------|----------------|----------------|
   1e+a2e+a3e+a4e+a 1e+a2e+a3e+a4e+a 1e+a2e+a3e+a4e+a 1e+a2e+a3e+a4e+a


[Chorus]

B |----------------|----------------|----------------|----------------|
F#|----------------|----------------|----------------|----------------|
D |----------------|----------------|----------------|----------------|
A |----------------|----------------|----------------|----------------|
E |----------------|----------------|3N----------2N--|2N--------------|
A |2N--------------|2N--------------|----------------|----------------|
                                                                        X4
B |----------------|----------------|----------------|----------------|
F#|----------------|----------------|----------------|----------------|
D |----------------|----------------|----------------|----------------|
A |----------------|----------------|----------------|----------------|
E |2N--0N----------|0N--------------|----------------|----------------|
A |----------------|----------------|3N--------------|3N--------------|


[End]

B |----------------|----------------|----------------|----------------|
F#|----------------|----------------|----------------|----------------|
D |----------------|----------------|----------------|----------------|
A |----------------|----------------|----------------|----------------|
E |----------------|----------------|----------------|----------------|
A |0N--------------|0N--------------|0N--------------|0N--------------|



************************************

| x  Dead note
| N  Tremolo

************************************
Suggest correction
Creating personal tab
Creating personal tab
You can edit any tab online and save it as your Personal.

You can edit, replace or remove any tab part or add personal notes – all changes will be seen only by you.

Personal tabs can be accessed anytime from any device, even offline.
Learn more »
Give kudos to tab author, rate the tab!
1 2 3 4 5
comments
print report bad tab
guest
You may want to rate the tab now too:
select rating
Wanna post a correction for this tab? Suggest correction